Song name
# A B C D E F G H I J K L M N O P Q R S T U V W X Y Z

Eva Cassidy - Wayfaring Stranger tab

Eva Cassidy - Wayfaring Stranger

Tabbed By Bananaman12

After only finding incorrect tabs of this song online. Here is my version of the intro.

Intro riff:

E|-----------------------------------------------------------------------------------|
B|-----------------------------------------------------------------------------------|
G|----------10---------8--10---------------8h9p8-------------------------8-----------|
D|--8--11-------11----------------8---11-----------11--8------8-----11-------8-------|
A|--------------------------------------------------------11-------------------------|
E|-----------------------------------------------------------------------------------|

E|-----------------------------------------------------------------------------------|
B|---------------------9--11---------------------------------------------------------|
G|---------8----11-------------------------8h9p8--------------------------8----------|
D|--8--11-------------------------8---11------------11--8------8-----11--------8-----|
A|---------------------------------------------------------11------------------------|
E|-----------------------------------------------------------------------------------|


E|-----------------------------------------------------------------------------------|
B|-----------------------------------------------------------------------------------|
G|---------8s10--------8--10---------------8h9p8----------------------------8--------|
D|--8--11--------11---------------8---11-----------11--8------8--------11-------8----|
A|--------------------------------------------------------11-------------------------|
E|-----------------------------------------------------------------------------------|


E|-----------------------------------------------------------------------------------|
B|-----------------------------------------------------------------------------------|
G|----------9---10----11--9--10---8h9p8-------------------------6---6--8-6-----------|
D|--8--11---------------------------------11--8--------8--------6---6--8-8---8-------|
A|----------11--11--------------------------------11-------------------------8-------|
E|-----------------------------------------------------------------------------------|
Tap to rate this tab
 
# A B C D E F G H I J K L M N O P Q R S T U V W X Y Z