Song name
# A B C D E F G H I J K L M N O P Q R S T U V W X Y Z

Eva Cassidy - Over The Rainbow tab

E:---8-7---5-7-8-----5-3-----------------------------------|
B:-------8-------------------6-5---3-5-6---3-----3-5-------|
G:-5---------------5-------2-----5-----------4-5-----5-----|   X2
D:---------------------------------------------------------|
A:---------------------------------------------------------|
E:---------------------------------------------------------|

E:-3-0-3-0-3-0-3-0---3-1-3-1-3-1-3-5-3---3-0-3-0-3-0-3-0---|
B:---------------------------------------------------------|
G:---------------------------------------------------------|
D:---------------------------------------------------------|
A:---------------------------------------------------------|
E:---------------------------------------------------------|

E:-3-1-3-1-3-1-3-1-3-5-7-10-5-----8-7---5-7-8-----5-3------|
B:------------------------------------8--------------------|
G:------------------------------5---------------5----------|
D:---------------------------------------------------------|
A:---------------------------------------------------------|
E:---------------------------------------------------------|

E:-------------------------------3-0-3-0-3-0-3-0---3-1-3-1-|
B:---6-5---3-5-6---3-----3-5-------------------------------|
G:-2-----5-----------4-5-----5-----------------------------|
D:---------------------------------------------------------|
A:---------------------------------------------------------|
E:---------------------------------------------------------|

E:-3-1---1-3-5-7-8-----------------------------------------|
B:---------------------------------------------------------|
G:---------------------------------------------------------|
D:---------------------------------------------------------|
A:---------------------------------------------------------|
E:---------------------------------------------------------|

by chloe fry age 11 i hope it's good!
Tap to rate this tab
 
# A B C D E F G H I J K L M N O P Q R S T U V W X Y Z