Song name
# A B C D E F G H I J K L M N O P Q R S T U V W X Y Z

Eva Cassidy - Wade In The Water tab

 Eva Cassidy - Wade in the Water (im gonna put in note and tab form)
 (listen to the song for timing)
 Drop D
  tablature (chorus and 'god's a gonna trouble the water')
E|---------------------------------------------------------|
B|---------------------------------------------------------|
G|---------------------------------------------------------|
D|---------------------------------------------------------|
A|------------------12--15-12--17-15-12-10-8---------------|
E|-10--13-10-13-10-----------------------------------------|

  verses
E|-------------------------------------------------------|
B|-------------------------------------------------------|
G|-------------------------------------------------------|
D|-------------------------------------------------------|
A|------------------17-20-17-20-17-17-12-15-17-----------|
E|-10--13-10-13-10---------------------------------------|

  notes
E|-------------------------------------------------------|
B|-------------------------------------------------------|
G|-------------------------------------------------------|
D|-------------------------------------------------------|
A|-------------A--C-A--D-C-A-G-F-------------------------|
E|-D--F-D-F-D--------------------------------------------|

E|-------------------------------------------------------|
B|-------------------------------------------------------|
G|-------------------------------------------------------|
D|-------------------------------------------------------|
A|-------------D-F-D-F-D-D-A-C-D-------------------------|
E|-D--F-D-F-D--------------------------------------------|

    EnJoY!
Tap to rate this tab
 
# A B C D E F G H I J K L M N O P Q R S T U V W X Y Z