Song name
# A B C D E F G H I J K L M N O P Q R S T U V W X Y Z

Evaline - There There tab

email:nfdrummer92@gmail.com

Tuning:Standard

intro

Guitar 1                   
e|---------------------------------------------------------------------| 
B|---------------------------------------------------------------------|
G|---------------------------------------------------------------------|
D|---------------------------------------------------------------------|
A|---------------------------------------------------------------------|
E|-/7-7-7-7-7-7-7-7-10-10-10-10-10-10-10-10-7-7-7-7-7-7-7-7-10-10-10-10|


e|---------------------------------------------------------------------|
B|---------------------------------------------------------------------|
G|---------------------------------------------------------------------|
D|---------------------------------------------------------------------|
A|-9-9-9-9-------------------------------------------------------------|
E|---------------------------------------------------------------------|

verse

Guitar 1 verse same as intro

Guitar 2
e|---------------------------------------------------------------------|
B|---------------------------------------------------------------------|
G|--4-4-4-4-4-4-4-4-4-4-2-2-2-2-2-2-2-0-0-0-0-0-0-0-0------------------|
D|----------------------------------------------------4-4-4-4-4-4-4-4-4|
A|---------------------------------------------------------------------|
E|---------------------------------------------------------------------|


e|----------------------------------------------------|
B|----------------------------------------------------|
G|-4-4-4-4-4-4-4-4-4-4-2-2-2-2-2-2-2-0-0-0-0-0-0-0-0--|
D|----------------------------------------------------|
A|----------------------------------------------------|
E|----------------------------------------------------|


chorus

Guitar 1 & 2
e|-------------------------------------------------------------------|
B|-------------------------------------------------------------2-2-2-|
G|-4-4-4-7-7-7-4-4-4-4-4-/11-4-4-9-9-9-7-7-7-9-9-9-7-7-7-7-7-7-2-2-2-|
D|-4-4-4-7-7-7-4-4-4-4-4-/9--4-4-9-9-9-7-7-7-9-9-9-7-7-7-7-7-7-2-2-2-|
A|-2-2-2-5-5-5-2-2-2-2-2-----2-2-7-7-7-5-5-5-7-7-7-5-5-5-5-5-5-0-0-0-|
E|-------------------------------------------------------------------|

e|-------------------------------------------------------------------|
B|-------------------------------------------------------------------|
G|-4-4-4-7-7-7-4-4-4-4-4-/11-11-11-11-12-12-12-12-12-7-7-7-7-6-6-6-6-|
D|-4-4-4-7-7-5-4-4-4-4-4-/9--11-11-11-12-12-12-10-12-7-7-7-7-6-6-6-6-|
A|-2-2-2-5-5-5-2-2-2-2-2-----9--9--9--10-10-10-10-10-5-5-5-5-4-4-4-4-|
E|-------------------------------------------------------------------|

repeat verse

repeat chorus 2x

bridge
e|--------------------------------------------------------------------|
B|--------------------------------------------------------------------|
G|-9-9-9-9-7-7-7-7-4-4-4-4-7-7-7-7-9-9-9-9-7-7-7-7-4-4-4-4-7-7-7-7-6-4|
D|-9-9-9-9-7-7-7-7-4-4-4-4-7-7-7-7-9-9-9-9-7-7-7-7-4-4-4-4-7-7-7-7-6-4|
A|-7-7-7-7-5-5-5-5-2-2-2-2-5-5-5-5-7-7-7-7-5-5-5-5-2-2-2-2-5-5-5-5-4-2|
E|--------------------------------------------------------------------|


e|--------------------------------------------------------------------|
B|--------------------------------------------------------------------|
G|-4--------4-4---------4-4---------4-4-4-----------------------------|
D|-4--------4-4---------4-4---------4-4-4-----------------------------|
A|-2--------2-2---------2-2---------2-2-2-----------------------------|
E|--------------------------------------------------------------------|


repeat chorus

outro
e|-----------------------------------------------------------------|
B|-----------------------------------------------------------------|
G|-4-4-4-4-4-4-4-4-7-7-7-7-7-7-7-7-4-4-4-4-4-4-4-4-----------------|
D|-4-4-4-4-4-4-4-4-7-7-7-7-7-7-7-7-4-4-4-4-4-4-4-4-5-5-5-5-7-7-7-7-|
A|-2-2-2-2-2-2-2-2-5-5-5-5-5-5-5-5-2-2-2-2-2-2-2-2-5-5-5-5-7-7-7-7-|
E|-------------------------------------------------3-3-3-3-5-5-5-5-|

END
Tap to rate this tab
# A B C D E F G H I J K L M N O P Q R S T U V W X Y Z