Song name
# A B C D E F G H I J K L M N O P Q R S T U V W X Y Z

Evan Taubenfeld - Its Like That chords

Highlighted       Show chord diagrams
Evan Taubenfeld
It's Like That
Welcome to The Blacklist Club
2010
Submitted by: paramore_fans@yahoo.com

Key: B

Tuning: Standard EADGBe

Chords used:
B -   x24442
F# -  244322
G#m - 466444
E -   022100
A -   x02220


Intro: 
B--F#-G#m--F#-E--F#-B--F#-G#m-A- x2

Guitar 2:
e|--------------------|---------------------------------------|
B|---------------2--4-|--------------------2--4--2--0h2p0h2p0-|
G|-4-4-4--4-4-4-------|-4-4-4--4-4-4--1--4--------------------|
D|--------------------|---------------------------------------|
A|--------------------|---------------------------------------|
           x2

e|--------------------|-----------------------------------------------|
B|---------------2--4-|--------------------2--4--2--4-5-4-2-4-2-0-----|
G|-4-4-4--4-4-4-------|-4-4-4--4-4-4--1--4------------------------3-4-|
D|--------------------|-----------------------------------------------|
A|--------------------|-----------------------------------------------|
           x2


Verse 1:
B                  F#
I'm the kid on the rise
G#m                        F#
I'm the heat in the summer time
E
Everyone around me
F#        B
knows I'm on my way
B                  F#
You may not see it now
G#m                  F#
Looking at my bank account
E
Girl you know I'm gonna
F#                  B
fool the world some day

Guitar 2: Verse 1
e|------------|
B|-2--4--2--0-|
G|------------|
D|------------| x2
A|------------|
E|------------|


Refrain 1:
G#m
   Cause when I get to
          E
where I'm going
I just don't think
         B
you'll be knowing
About the party
         F#
that I'm gonna have


Chorus 1:
          B
It's like that (it's like that)
     F#   G#m                 F#
It's like that (it's like that)
      E
We'll have the biggest mansion
F#     B                  F#
on the block and that's a fact
G#m  A    B
It's like that (it's like that)
     F#   G#m                  F#
It's like that (it's like that)
    E
And everyone's invited
F#  B
California to Iraq


Guitar 2: Chorus, * means harmonics
e|-7*-7*-------7*-7*-------|
B|-------7*-7*-------7*-7*-|
G|-------------------------|
D|-------------------------| x8
A|-------------------------|
E|-------------------------|


Post Chorus: Come on!!!

B--F#-G#m--F#-E--F#-B--F#-G#m-A

Guitar 2:
e|--------------------|---------------------------------------|
B|---------------2--4-|--------------------2--4--2--0h2p0h2p0-|
G|-4-4-4--4-4-4-------|-4-4-4--4-4-4--1--4--------------------|
D|--------------------|---------------------------------------|
A|--------------------|---------------------------------------|
          x2


Verse 2:
B
I'll be midas
             F#
As you'll be gold
G#m
You won't have to
          F#
sell your soul
E
Always keep a pair
   F#   B
of aces up my sleeve
     B                       F#
yeah I got game like Beckham man
G#m                      F#
Frank in catch me if you can
E
Won't you take my hand
    F#    B
and come away with me


Refrain 2:
G#m                     E
   We will hit our destination
                      B
Life will turn into vacation
                F#
Everybody all together now


Guitar 2: Refrain 2
e|-----------------------------------------------------|
B|-4-----4-----4---5-----5-----5-----7-----7-----7-----|
G|---4-4---4-4---4---4-4---4-4---4-4---4-4---4-4---4-4-|
D|-----------------------------------------------------|
A|-----------------------------------------------------|
E|-----------------------------------------------------|


(Repeat Chorus 1)


Post Chorus 2:
E
Everything I say is true
I would never lie to you
F#
Trust me love me don't be crazy
(hold)
Cause I'd never hurt you baby


Guitar Solo:

Guitar 1: B--F#-G#m--F#-E--F#-B--
Guitar 2: Evan's very fast shredding solo here!!!
e|-7-7-7-7-7-7-7-7-9-----11-----9-----11-----12-11-9-11-|
B|-7-7-7-7-7-7-7-7---0-0----0-0---0-0----0-0------------|
G|-8-8-8-8-8-8-8-8--------------------------------------|
D|------------------------------------------------------|
A|------------------------------------------------------|
E|------------------------------------------------------|

e|-9-----11-----9-----11-----12-11-9-11------------------|
B|---0-0----0-0---0-0----0-0------------7--9--9--7--9--9-|
G|-------------------------------------------------------|
D|-------------------------------------------------------|
A|-------------------------------------------------------|
E|-------------------------------------------------------|

e|-7-6-------------|
B|-----9-7---------|
G|---------9-8-6---|
D|---------------9-|
A|-----------------|
E|-----------------|


Verse 3:
B                   F#
All the cash in the world
      G#m                      F#
Won't make me rich without you girl
E
Don't you know that we can rule
    F#
the world some day


Guitar 2: on Verse 3: evan's very fast sweeping solo!!!
e|---------6-------|
B|-------7---7-----|
G|-----6-------6---|
D|---8-----------8-| x4
A|-9---------------|
E|-----------------|


(Repeat Chorus 1)


Chorus 2:
          B
It's like that (it's like that)
     F#   G#m                 F#
It's like that (it's like that)
      E
We're going to the hills
    F#    B            F#
and maybe never coming back
G#m  A    B
It's like that (it's like that)
     F#   G#m                 F#
It's like that (it's like that)
    E
And everyone's invited
F#  B
California to Iraq


Outro: while doing the intro on Guitar 2
B F# G#m    F#
        Big Evil
E        F#
  That's right
B
  And the
F#   G#m A B   F# G#m
Blacklist  Club
F#  E F# B
Yeah
     F#  G#m A B(hold)
It's like      that
Tap to rate this tab
 
# A B C D E F G H I J K L M N O P Q R S T U V W X Y Z