Song name
# A B C D E F G H I J K L M N O P Q R S T U V W X Y Z

Evan Taubenfeld - The Best Years Of Our Lives tab

Song Title:   Best Years Of Our Lives
Band/Artist:  Evan Taubenfeld Ft. Avril Lavigne

Tabbed By:    Pauz Prima (@MastersVision)

------------------------------------------------------------------------------------------------

DROPPED D TUNING

Guitar 1 - Capo on 2nd fret (Tab relative to capo.)


INTRO: D-G-Bm-G (2x)

Guitar 1:

|---------3--------1-0-|---------3--------1-0-|---------3--------1-0-|---------3----------0-|
|-----1-------1--------|-----1-------1--------|-----1-------1--------|-----1-------1----3---|
|---0---0--------0-----|---0---0--------0-----|---0---0--------0-----|---0---0--------0-----|
|----------------------|----------------------|----------------------|----------------------|
|-3~--------3~---------|----------------------|-0~--------0~---------|----------------------|
|----------------------|-3~--------3~---------|----------------------|-3~--------3~---------|

Guitar 2:

|---------------------------------------------------------------------|
|---------------------------------------------------------------------|
|---------------------------------------------------------------------|
|----0-----0-----0----0-----0-----0----0-----0-----0----0-----0-----0-|
|---5-5---5-5---5----5-5---5-5---5----5-5---5-5---5----5-5---5-5---5--|
|-0-----0-----0----5-----5-----5----9-----9-----9----5-----5-----5----|


VERSE 1: D-G-Bm-G (2x)

Guitar 2:

|---------------------------------------------------------------------|
|---------------------------------------------------------------------|
|---------------------------------------------------------------------|
|----0-----0-----0----0-----0-----0----0-----0-----0----0-----0-----0-|
|---5-5---5-5---5----5-5---5-5---5----5-5---5-5---5----5-5---5-5---5--|
|-0-----0-----0----5-----5-----5----9-----9-----9----5-----5-----5----|


INTERLUDE: D-G-Bm-G

Guitar 1:

|---------3--------1-0-|---------3--------1-0-|---------3--------1-0-|---------3----------0-|
|-----1-------1--------|-----1-------1--------|-----1-------1--------|-----1-------1----3---|
|---0---0--------0-----|---0---0--------0-----|---0---0--------0-----|---0---0--------0-----|
|----------------------|----------------------|----------------------|----------------------|
|-3~--------3~---------|----------------------|-0~--------0~---------|----------------------|
|----------------------|-3~--------3~---------|----------------------|-3~--------3~---------|


Guitar 2:

|---------------------------------------------------------------------|
|---------------------------------------------------------------------|
|---------------------------------------------------------------------|
|----0-----0-----0----0-----0-----0----0-----0-----0----0-----0-----0-|
|---5-5---5-5---5----5-5---5-5---5----5-5---5-5---5----5-5---5-5---5--|
|-0-----0-----0----5-----5-----5----9-----9-----9----5-----5-----5----|


VERSE 2: D-G-Bm-G (2x) 

Guitar 1:

|---------3~----1-0-|---------3~-----1-0-|---------3~~----1-0-|---------3----------0-|
|-----1-------------|-----1--------------|-----1--------------|-----1-------1----3---|
|---0---0-----------|---0---0------------|---0---0------------|---0---0--------0-----|
|-------------------|--------------------|--------------------|----------------------|
|-3~----------3-----|--------------------|-0~-----------0-----|----------------------|
|-------------------|-3~-----------3-----|--------------------|-3~--------3~---------|

Guitar 2:

|---------------------------------------------------------------------|
|---------------------------------------------------------------------|
|---------------------------------------------------------------------|
|----0-----0-----0----0-----0-----0----0-----0-----0----0-----0-----0-|
|---5-5---5-5---5----5-5---5-5---5----5-5---5-5---5----5-5---5-5---5--|
|-0-----0-----0----5-----5-----5----9-----9-----9----5-----5-----5----|


PRE-CHORUS: A-Bm-A-F#m-G

Guitar 2:

|-----------------------------------------------------------------|
|-----------------------------------------------------------------|
|-----------------------------------------------------------------|
|----0-----0---------0-----0---------0-----0---------0-------0----|
|---5-5---5-5---5---5-5---5-5---5---5-5---5-5---5---5-5-----5-5---|
|-7-----7-----7---9-----9-----9---7-----7-----7---4-----4-5-----5-|


CHORUS: D-G-Bm-G
        D-G-Bm-G-A

Guitar 1: (just strum the chords)

Guitar 2:

|---------------------------------------------------------------------|
|---------------------------------------------------------------------|
|---------------------------------------------------------------------|
|----0-----0-----0----0-----0-----0----0-----0-----0----0-----0-----0-|
|---5-5---5-5---5----5-5---5-5---5----5-5---5-5---5----5-5---5-5---5--|
|-0-----0-----0----5-----5-----5----9-----9-----9----5-----5-----5----|

|--------------------------------------------------------------------|
|--------------------------------------------------------------------|
|--------------------------------------------------------------------|
|----0-----0-----0----0-----0-----0----0-----0-----0----0-------0----|
|---5-5---5-5---5----5-5---5-5---5----5-5---5-5---5----5-5-----5-5---|
|-0-----0-----0----5-----5-----5----9-----9-----9----5-----5-7-----7-|


INTERLUDE: D-G

Guitar 2:

|------------------------------------|
|------------------------------------|
|------------------------------------|
|----0-----0-----0----0-----0-----0~-|
|---5-5---5-5---5----5-5---5-5---5---|
|-0-----0-----0----5-----5-----5-----|


VERSE 3: (do Verse 2)


REPEAT CHORUS


then

Guitar 2:

|------------------------------------|
|------------------------------------|
|------------------------------------|
|----0-----0-----0----0-----0-----0~-|
|---5-5---5-5---5----5-5---5-5---5---|
|-0-----0-----0----0-----0-----0-----|


BRIDGE: Bm-G-D-A (2x)

Guitar 2:

|---------------------------------------------------------------------|
|---------------------------------------------------------------------|
|---------------------------------------------------------------------|
|----0-----0-----0----0-----0-----0----0-----0-----0----0-----0-----0-|
|---5-5---5-5---5----5-5---5-5---5----5-5---5-5---5----5-5---5-5---5--|
|-9-----9-----9----5-----5-----5----0-----0-----0----7-----7-----7----|


REPEAT CHORUS


OUTRO: D-G-Bm-G

Guitar 1:

|---------3--------1-0-|---------3--------1-0-|---------3--------1-0-|-----|
|-----1-------1--------|-----1-------1--------|-----1-------1--------|-----|
|---0---0--------0-----|---0---0--------0-----|---0---0--------0-----|-2~~-|
|----------------------|----------------------|----------------------|-3~~-|
|-3~--------3~---------|----------------------|-0~--------0~---------|-3~~-|
|----------------------|-3~--------3~---------|----------------------|-3~~-|

Guitar 2:

|--------------------------------------------------------|
|--------------------------------------------------------|
|--------------------------------------------------------|
|----0-----0-----0----0-----0-----0----0-----0-----0-0~~-|
|---5-5---5-5---5----5-5---5-5---5----5-5---5-5---5--5~~-|
|-0-----0-----0----5-----5-----5----9-----9-----9----5~~-|

----------------------------------------------------------------------------------

> Senthyx
> Salungguhit
Tap to rate this tab
# A B C D E F G H I J K L M N O P Q R S T U V W X Y Z