Guitaretab - guitar tabs
Song name
# A B C D E F G H I J K L M N O P Q R S T U V W X Y Z

Evanescence - Snow White Queen tab

----------------------------------------------------------------------------
                            Snow White Queen - Evanescence
----------------------------------------------------------------------------
This is my very first tab...
hope you like it!!!;)

Tuning:Drop D

VERSE 1:
Synth loop w/effects 
N.C.

PRE-CHORUS(1st time only):
w/delay
*Chords implied
 *F                             *Am                     *F
e|--------------|---------------|---------|-------------|--------------|
B|5---------5---|5h6---6----6\8-|(8)------|(8)---6--5---|----------5---|
G|--------5---5-|----5----6-----|---------|-----------5-|--------5---5-|
D|--------------|---------------|---------|-------------|7-------------|
A|--------------|---------------|---------|-------------|--------------|
D|--------------|---------------|---------|-------------|--------------|
You'll never know the way your words have haunted me...
                   *Am           
e|----------------|-------------|-----------------|-----12-----12-----|
B|5h6---6-----6---|6\8--8--8--8-|8\10--10--10--10-|-------------------|
G|----5---5-5---5-|-------------|-----------------|14-------14-----14-|
D|----------------|-------------|-----------------|-------------------|
A|----------------|-------------|-----------------|-------------------|
D|----------------|-------------|-----------------|-------------------|
[..]ask these things of me                  You don't know me..  
 *F/A                *Am                                          -|
e|12\1313-----13\15-|-----12-----12----|12\13----13-----13\15-|   | G  
B|-------------------|------------------|----------------------|   | T
G|-----------14------|-14------14----14-|------14-----14-------|   | R
D|-------------------|------------------|----------------------|   | 1
A|-------------------|------------------|----------------------|   |
D|-------------------|------------------|----------------------|   |
                       no one ever.....                            |
e|------------------------------------|------------------------|   | G
B|------------------------------------|------------------------|   | T 
G|------------------------------------|------------------------|   | R
D|------------------------------------|------------x-----------|   | 2
A|------------------------------------|6-6-6-5--3--x-----------|   |
D|----------------------------------/7|------------------------|  _|


CHORUS(gtr w/Dist.):                            
e|-------------|----------------|-----------------|---------------|
B|-------------|----------------|-----------------|---------------|
G|-------------|----------------|-----------------|---------------|
D|-------------|----------------|-----------------|---------------|
A|7-7--7-7-----|8-8-8-8--xx8\10-|7-7--7-7--7------|8-8-8-8--xx8\7-|
D|7-7--7-7---/7|---------xx-----|7-7--7-7--7---/7-|---------xx----|  

                                                                     
e|-------------|----------------|-------------|--------------|
B|-------------|----------------|-------------|--------------|
G|-------------|----------------|-------------|--------------|
D|-------------|----------------|-------------|------------x-|
A|7-7--7-7-----|8-8-8-8--xx8\10-|7-7--7-7-----|6-6-6-5--3--x-|
D|7-77-7---/7-|---------xx-----|7-7--7-7---/7|--------------|

1._____________________
|          Grad.bend
e|-------|----------------|
B|-------|----------------|
G|-------|-------------14-|
D|-------|----------------|
A|-------|----------------|
D|7------|(7)-------------|



VERSE(2ND time only):
  *A7
e|12----12--------|13----13---------|15----15--------|13----13--------|
B|----------------|-----------------|----------------|----------------|
G|----14-------14-|---14--------14--|---14-------14--|----14------14--|
D|----------------|-----------------|----------------|----------------|
A|----------------|-----------------|----------------|----------------|
D|----------------|-----------------|----------------|----------------|

[ Tab from: http://www.guitaretab.com/e/evanescence/100982.html ]
PRE-CHORUS(2ND TIME ONLY):
 *F                            *Am
e|---------------|------------|---------------|--------------|
B|---------------|------------|---------------|--------------|
G|--------0------|------------|----0---2----4-|(4)---5--4--0-|
D|----3-----3--2-|(2)-3-------|--2---2---2----|--------------|
A|--3---3--------|------------|0--------------|--------------|
D|3--------------|------------|---------------|--------------|
I can't escape the twisted way u think of me...
 *F
e|---------------|------------|
B|---------------|------------|
G|--------0------|------------|
D|----3-----3--2-|(2)-3-------|
A|--3---3--------|------------|
D|3--------------|------------|
 *Am                            N.C
e|---------------|-------------|--------|--------|
B|---------------|-------------|--------|--------|
G|----0---2----4-|(4)-7--7-----|--------|--------|
D|--2---2---2----|-------------|--------|--------|
A|0--------------|-------------|--------|--------|
D|---------------|-------------|--------|--------|
                                I don't sleep Say,

CHORUS


BRIDGE:
2.__________________________________________________________________________
|
 GTR 1 RHYTHM:
  E5
e|--------------|
B|--------------|
G|--------------|
D|--------------|
A|2-2-2-2-2---x-|
D|2-2-2-2-2---x-|
*GTR 1 cont.rhythm simile

 GTR 2(LEAD):
  E5            F5             G5                A5
e|-------------|--------------|-----------------|--------------|
B|-------------|--------------|-----------------|--------------|
G|-------------|--------------|-----------------|--------------|
D|-------------|--------------|-----------------|--------------|
A|7---7--5-7\8-|8---8--7-8\10-|10---10--8-10\12-|12---14---15--|
D|-------------|--------------|-----------------|--------------|
                      I can't save your life_________[...]
  F5                 E5                 A5         A5
e|------------------|------------------|--------|--------------------------|
B|------------------|------------------|--------|--------------------------|
G|------------------|------------------|--------|--------------------------|
D|------------------|------------------|--------|--------------------------|
A|(15)---14---15-14-|(14)-----14-14\12-|12------|(12)--10-10\12-12\10-10\7-|
D|------------------|------------------|--------|--------------------------|
  E5            F5             G5                A5
e|-------------|--------------|-----------------|------------------|
B|-------------|--------------|-----------------|------------------|
G|-------------|--------------|-----------------|------------------|
D|-------------|--------------|-----------------|------------------|
A|7---7--5-7\8-|8---8--7-8\10-|10---10--8-10\12-|12---12--\10-10\8-|
D|-------------|--------------|-----------------|------------------|
  F5            D5          E5          E5      tremolo bar
e|-------------|-----------|-----------|--------------|
B|-------------|-----------|-----------|--------------|
G|-------------|-----------|-----------|--------------|
D|-------------|-----------|-----------|-9---9---(9)\-|
A|8---8--8-8\5-|5---5---5--|7---7---7--|---7----------|
D|-------------|-----------|-----------|--------------|
      [...]and stare as my world divides_____
CHORUS:
                 N.C.                        N.C.
e|--------------|-----------|--------------|-----------------|
B|--------------|-----------|--------------|-----------------|
G|--------------|-----------|--------------|-----------------|
D|--------------|-----------|--------------|-----------------|
A|7-7--7-7------|-----------|7-7--7-7------|-----------------|
D|7-7--7-7---7\-|-----------|7-7--7-7---7\-|-----------------|
You__________ belong to me____          My snow white queen

Continue with CHORUS(meas.5-8 only)and then again
CHORUS


e|---------------|----------------|    |---------|
B|---------------|----------------|    |---------|
G|---------------|----------------|    |---------|
D|---------------|----------------|(X3)|---------|
A|3-----------/6-|(6)-6-6-5--3--3-|    |---------|
D|--7--7-7-------|----------------|    |7--------|
[...]             All I want is you...

Outro:
N.C.
Synth loop w/effects

|- 8th note
|--4th note etc..
| /  slide up
| \  slide down
| h  hammer-on
| p  pull-off
| ~  vibrato
| +  harmonic
| x  Mute note
============================================================================

Related for Snow White Queen tab