Song name
# A B C D E F G H I J K L M N O P Q R S T U V W X Y Z

Evanescence - Haunted tab

This was supposed to be a bass tab but i can't change it now.

Chorus:
G|------------------------------------------------|
D|-------------------------------------5-4-2-4-2--|
A|------------------------------------------------|x2
D|--2-22~--22---0-00~--00---2-22~--22-------------|
pm.        ..          ..          ..

Verse:
G|----------------------------------------|
D|----------------------------------------|
A|----------------------------------------|x2
D|-222-2-2---222-2-2---222-2-2---222-2-2--|
pm.... . .   ... . .   ... . .   ... . .    

Chorus:
G|------------------------------------------------|
D|-------------------------------------5-4-2-4-2--|
A|------------------------------------------------|x2
D|--2-22~--22---0-00~--00---2-22~--22-------------|
pm.        ..          ..          ..

Solo:
G|------------------------------------------------|
D|------------------------------------------------|
A|--444444442222222244444444----------------------|x2
D|--------------------------66666666--------------|

Chorus:
G|------------------------------------------------|
D|-------------------------------------5-4-2-4-2--|
A|------------------------------------------------|x2
D|--2-22~--22---0-00~--00---2-22~--22-------------|
pm.        ..          ..          ..

Outro:
G|-----------|
D|-----------|
A|-----------|x2
D|--222-2-2--|
pm..... . .



Tap to rate this tab
# A B C D E F G H I J K L M N O P Q R S T U V W X Y Z