Song name
# A B C D E F G H I J K L M N O P Q R S T U V W X Y Z

Evanescence - Anywhere tab

Intro:

e|-------------------------------------------------------------------------|
B|-------------------------------------------------------------------------|
G|-----------------------------------------------------------6-------------|
D|--------6--7--6-----6--7--6-----6--7--6-----6--7--6-----7-----7----------|
A|-------------------------------------------------------------------------|
D|-----4-----------4-----------4-----------7-----------9-------------------|

e|-------------------------------------------------------------------------|
B|-------------------------------------------------------------------------|
G|--------------------------------------6--------6-------------------------|
D|--------6--7--6-----6--7--6-----6-----------7-----7----------------------|
A|-------------------------------------------------------------------------|
D|-----4-----------4-----------7-----------9-------------------------------|


Verse:

e|-------------------------------------------------------------|
B|-------------------------------------------------------------|
G|-----------------------------------------------6-------------|
D|--------6--7--6-----6--7--6-----6--7--6-----7-----7----------|
A|-------------------------------------------------------------|
D|-----4-----------4-----------7-----------9-------------------|

e|-------------------------------------------------------------|
B|-------------------------------------------------------------|
G|-------------------------------------------------------------|
D|--------6--7--6-----6--7--6-----6--7--6-----7--6--7----------|
A|-------------------------------------------------------------|
D|-----4-----------4-----------7-----------9-------------------|

e|-------------------------------------------------------------|
B|-------------------------------------------------------------|
G|-----------------------------------------------6-------------|
D|--------6--7--6-----6--7--6-----6--7--6-----7-----7----------|
A|-------------------------------------------------------------|
D|-----4-----------4-----------7-----------9-------------------|

e|-------------------------------------------------------------|
B|-------------------------------------------------------------|
G|-----------------------------------------------6-------------|
D|--------6--7--6-----6--7--6-----6--7--6-----7-----7----------|
A|-------------------------------------------------------------|
D|-----4-----------4-----------7-----------9-------------------|

e|------------------------------|
B|------------------------------|
G|------------------------------|
D|--------6--7--6-----6--7--6---|
A|------------------------------|
D|-----4-----------4------------|


Chorus:
e|-------------------------------------|
B|-------------------------------------|
G|--2--------------------6----4--------|
D|--2----2----4-----0----6----4----2---|x2
A|--0----2----4-----0----4----2----2---|
D|-------2----4-----0--------------2---|

e|---------|
B|---------|
G|--2------|
D|--2---6--|
A|--0---6--|
D|------6--|

verse:
e|-------------------------------------------------------------|
B|-------------------------------------------------------------|
G|-----------------------------------------------6-------------|
D|--------6--7--6-----6--7--6-----6--7--6-----7-----7----------|
A|-------------------------------------------------------------|
D|-----4-----------4-----------7-----------9-------------------|

e|-------------------------------------------------------------|
B|-------------------------------------------------------------|
G|-----------------------------------------------6-------------|
D|--------6--7--6-----6--7--6-----6--7--6-----7-----7----------|
A|-------------------------------------------------------------|
D|-----4-----------4-----------7-----------9-------------------|

e|-------------------------------------------------------------|
B|-------------------------------------------------------------|
G|-----------------------------------------------6-------------|
D|--------6--7--6-----6--7--6-----6--7--6-----7-----7----------|
A|-------------------------------------------------------------|
D|-----4-----------4-----------7-----------9-------------------|

e|-------------------------------------------------------------|
B|-------------------------------------------------------------|
G|-----------------------------------------------6-------------|
D|--------6--7--6-----6--7--6-----6--7--6-----7-----7----------|
A|-------------------------------------------------------------|
D|-----4-----------4-----------7-----------9-------------------|

e|------------------------------|
B|------------------------------|
G|------------------------------|
D|--------6--7--6-----6--7--6---|
A|------------------------------|
D|-----4-----------4------------|

Chorus:
e|-------------------------------------|
B|-------------------------------------|
G|--2--------------------6----4--------|
D|--2----2----4-----0----6----4----2---|x2
A|--0----2----4-----0----4----2----2---|
D|-------2----4-----0--------------2---|

Bridge:
e|-----------------|
B|-----------------|
G|--4---6---7---9--|
D|--4---6---7---9--|x4
A|--2---4---5---7--|
D|-----------------|

Solo Backing
e|-------------------------------------|
B|-------------------------------------|
G|--2--------------------6----4--------|
D|--2----2----4-----0----6----4----2---|x2
A|--0----2----4-----0----4----2----2---|
D|-------2----4-----0--------------2---|

For the solo, i use thmarios's version:

http://www.ultimate-guitar.com/tabs/e/evanescence/anywhere_solo_ver2_tab.htm

Last Chorus:
e|-------------------------------------|
B|-------------------------------------|
G|--2--------------------6----4--------|
D|--2----2----4-----0----6----4----2---|x3
A|--0----2----4-----0----4----2----2---|
D|-------2----4-----0--------------2---|
on the third time, hold the last---^

e|---------|
B|---------|
G|--2~-----|
D|--2~-----|
A|--0~-----|
D|---------|



Tap to rate this tab
# A B C D E F G H I J K L M N O P Q R S T U V W X Y Z