Song name
# A B C D E F G H I J K L M N O P Q R S T U V W X Y Z

Evanescence - Zero tab

----------------------------------------------------------------------------
			     ZERO - Evanescence
----------------------------------------------------------------------------
Tabbed by: Mask_of_terror
Email: Will_543@hotmail.co.uk

Tuning: Drop D


This is seriously my first tab so be gentle. It sounds right to me but
 the version of the song i have is low quality, i tried my best.


  x8					
e|----------------------------------------------------------------|
B|----------------------------------------------------------------|
G|----------------------------------------------------------------|
D|-7-0--5-0--3---2/7-0--5-0--3---2/3------------------------------|
A|-7-0--5-0--3---2/7-0--5-0--3---2/3------------------------------|
D|-7-0--5-0--3---2/7-0--5-0--3---2/3------------------------------|


  x4
e|----------------------------------------------------------------|
B|----------------------------------------------------------------|
G|----------------------------------------------------------------|
D|-3--5--3--7--5-000----------------------------------------------|
A|----------------------------------------------------------------|
D|--0-0-0-0-------------------------------------------------------|
    x x x x


  x7
e|----------------------------------------------------------------|
B|----------------------------------------------------------------|
G|----------------------------------------------------------------|
D|-7-0--5-0--3---2/7-0--5-0--3---2/3------------------------------|
A|-7-0--5-0--3---2/7-0--5-0--3---2/3------------------------------|
D|-7-0--5-0--3---2/7-0--5-0--3---2/3------------------------------|



e|---------------------------------------------------------------|
B|---------------------------------------------------------------|
G|-9-9-9------9-9-9------9-9-9------9-9--------------------------|
D|-7-7-7------7-7-7------7-7-7------7-7--------------------------|
A|-7-7-7------7-7-7------7-7-7------7-7--------------------------|
D|---------------------------------------------------------------|



Weird guitar bit....wasn't sure how to do it


 
  x4
e|---------------------------------------------------------------|
B|---------------------------------------------------------------|
G|---------------------------------------------------------------|
D|-7-0--5-0--3---2/7-0--5-0--3---2/3-----------------------------|
A|-7-0--5-0--3---2/7-0--5-0--3---2/3-----------------------------|
D|-7-0--5-0--3---2/7-0--5-0--3---2/3-----------------------------|

 
 x4
e|---------------------------------------------------------------|
B|---------------------------------------------------------------|
G|---------------------------------------------------------------|
D|-3--5--3--7--5-000---------------------------------------------|
A|---------------------------------------------------------------|
D|--0--0--0--0---------------------------------------------------|
    x  x  x  x



Another weird guitar bit, again, wasn't sure how to do it...



		      x2...then
e|-----------------------|---------------------------------------|
B|-----------------------|---------------------------------------|
G|-----------------------|--------------------5--7--9--10--12----|
D|-3--3--3--3--5p0-0-0---|----3--5--7--9--7--9-------------------|
A|-----------------------|---------------------------------------|
D|--0--0--0--0-----------|---------------------------------------|
    x  x  x  x

  x3
e|---------------------------------------------------------------|
B|---------------------------------------------------------------|
G|---------------------------------------------------------------|
D|-7-0--5-0--3---2/7-0--5-0--3---2/3-----------------------------|
A|-7-0--5-0--3---2/7-0--5-0--3---2/3-----------------------------|
D|-7-0--5-0--3---2/7-0--5-0--3---2/3-----------------------------|

e|---------------------------------------------------------------|
B|---------------------------------------------------------------|
G|---------------------------------------------------------------|
D|-7-0--5-0--3---7-7---------------------------------------------|
A|-7-0--5-0--3---7-7---------------------------------------------|
D|-7-0--5-0--3---7-7---------------------------------------------|



Any comments, feel free to e-mail me at will_543@hotmail.co.uk.

| /  slide up
| \  slide down
| h  hammer-on
| p  pull-off
| ~  vibrato
| +  harmonic
| x  Mute note
============================================================================
Tap to rate this tab
# A B C D E F G H I J K L M N O P Q R S T U V W X Y Z