Song name
# A B C D E F G H I J K L M N O P Q R S T U V W X Y Z

Evanescence - Cloud Nine tab

Help us improve GuitareTab! Take a short survey!
----------------------------------------------------------------------------
	                  Cloud Nine- Evanescence
----------------------------------------------------------------------------
Tabbed by: Bristlehead
Email: bristlehead@gmail.com

Tuning: Drop Db



I'm almost 100% that there are no mistakes.




[Verse]


-----Slide down into this riff:
    1 + 2 + 3 + 4 + 1 + 2 + 3 + 4 + 1 + 2 + 3 + 4 +
e|----------------------------------------------------------|
B|----------------------------------------------------------|
G|----------------------------------------------------------|
D|---0202-02-020-----0202-02-020-----0202-02-020------------| (Hiiiigh...)
A|---0202-02-020-----0202-02-020-----0202-02-020------------|
E|---0202-02-020-----0202-02-020-3~~-0202-02-020------------|
                                 (PH)
----Slide
    1 + 2 + 3 + 4 + 1 + 2 + 3 + 4 +
e|----------------------------------------------------------|
B|----------------------------------------------------------|
G|-------------------------------------9--16--9--15~~~------|
D|---0202-02-020-----0202-02-020----------------------------|
A|---0202-02-020-----0202-02-020-------7--14--7--13~~~------|
E|---0202-02-020-----0202-02-020-3~~------------------------|
                                 (PH)



[Prechorus]


(Guitar 1)
e|--0-/-12-------12-------------14-------14-------12-14-15~~~~15~~~15\-----|
B|---------10-10----10-10-10/12----12-12----12-12--------------------------|
G|-------------------------------------------------------------------------|
D|-------------------------------------------------------------------------|
A|-------------------------------------------------------------------------|
E|-------------------------------------------------------------------------|

12-0-0-12-0-0-12-0-12-------12----------14-------14-------12-14------------|
----------------------10-10----10-10/12----12-12----12-12------------------|
------------------------------------------------------------------11-8-4-16|
---------------------------------------------------------------------------|
------------------------------------------------------------------9--6-2-14|
---------------------------------------------------------------------------|

(Guitar 2) (Nothing for the first part) and then...

e|-------------------------------|
B|-------------------------------|
G|-----------------------4-------|
D|--2-4-5-9-7----5-4--1--4-------|
A|--2-4-5-9-7----5-4--1--2-------|
E|--2-4-5-9-7----5-4--1----------|


[Chorus]
  Strumming not written.  There is another lead part going on here, but
  it's basically just octaves jumping all over the place and it's mixed
  very very very low, so here's the chords of the second guitar.

e|------------------------------------|
B|------------------------------------|
G|-------------------------5-------4--|
D|---10---2---10---2---0---5---2---4--|
A|---10---2---10---2---0---3---2---2--|
E|---10---2---10---2---0-------2------|

2nd Chorus

e|---------------------------------------------------------------------|
B|---------------------------------------------------------------------|
G|-----------------------------4----------------------------5-------4--|
D|---10---2---10---2---7---2---4------10---2---10---2---0---5---2---4--|
A|---10---2---10---2---7---2---2------10---2---10---2---0---3---2---2--|
E|---10---2---10---2---7---2----------10---2---10---2---0-------2------|




[Bridge] (This next part is hard to hear... but he DOES change notes)

    Will you...
e|--------------------------------------------------------------------|
B|--------------------------------------------------------------------|
G|--------------------------------------------------------------------|
D|--------------------------------------------------------------------| 2x
A|--5202--5202------5202--5202----------------------------------------|
E|--5202--5202------5202--5202----4-5-7--5--4~~~---4-5-7--5--4~~~~----|

                 change my mind...
e|-------------------------------------------|
B|-------------------------------------------|
G|--------------------4----------------------|
D|--7----2---5----7-4-4----------------------|
A|--7----2---5----7-4-2----------------------|
E|--7----2---5----7-4------------------------|


[End Chorus]

e|---------------------------------------------------------------------|
B|---------------------------------------------------------------------|
G|-----------------------------4----------------------------5-------4--|
D|---10---2---10---2---7---2---4------10---2---10---2---0---5---2---4--|
A|---10---2---10---2---7---2---2------10---2---10---2---0---3---2---2--|
E|---10---2---10---2---7---2----------10---2---10---2---0-------2------|





Enjoy!

Related for Cloud Nine tab