Song name
# A B C D E F G H I J K L M N O P Q R S T U V W X Y Z

Evanescence - Weight Of The World tab

----------------------------------------------------------------------------
	             WEIGHT OF THE WORLD - Evanescence
----------------------------------------------------------------------------
Tabbed by: Bristlehead
Email: bristlehead@gmail.com

Tuning: Drop Db

===================================Intro===================================

[guitar 1]
e|-------------------------------------------------------------------------|
B|-------------------------------------------------------------------------|
G|----------------------------------------------------------(2x)-----------|
D|-----2-----------2--3--0-----2-3-2-0-2------2-3-2-2-2--------------------|
A|-----2-----------2--3--0-----2-3-2-0-2------2-3-2-2-2--------------------|
E|-2-2-2-------2-2-2--3--0-----2-3-2-0-2------2-3-2-2-2--------------------|
   * *         * *

[guitar 2]  (second time)
e|-------------------------------------------------------------------------|
B|-------------------------------------------------------------------------|
G|-x-x-9--13--16--16-17-14------16-17-16-13-13-------9-10-9-9-9------------|
D|-------------------------------------------------------------------------|
A|-x-x-7--11--14--14-15-12------14-15-14-11-11-------7-8--7-7-7------------|
E|-------------------------------------------------------------------------|


===================================Intro===================================

[verse]
e|---------------------------------------|
B|---------------------------------------|
G|---------------------------------------|
D|--2-3-2-2-2-----2-3-2-2-2----(3x)------|
A|--2-2-2-2-2-----2-3-2-2-2--------------|
E|--2-3-2-2-2-----2-3-2-2-2--------------|

e|--------------------------------------------------------------|
B|--------------------------------------------------------------|
G|--------------------------------------------------------------|
D|-----2-----------2--3--0-----2-3-2-0-2------2-3-2-2-2---------|
A|-----2-----------2--3--0-----2-3-2-0-2------2-3-2-2-2---------|
E|-2-2-2-------2-2-2--3--0-----2-3-2-0-2------2-3-2-2-2---------|
   * *         * *

(Freefall, freefall, all through life...)


[Chorus] (rhythm not written out)

  If you love me...                           Then Let go of me
e|-------------------------------------------------------------------------|
B|-------------------------------------------------------------------------|
G|-------------------------------------------------------------------------|
D|--7----------------------3--------------------7-------------------3------|
A|--7----------------------3--------------------7-------------------3------|
E|--7----------------------3--------------------7-------------------3------|
   I won't be held down                     By who I          used       to
e|-------------------------------------------------------------------------|
B|-------------------------------------------------------------------------|
G|-------------------------------------------------------------------------|
D|--7----------------------3-------------------0---------------2-----------|
A|--7----------------------3-------------------0---------------2-----------|
E|--7----------------------3-------------------0---------------2-----------|


  Be...   (strumming is correct)
    1   &   2   &   3   &   4   &   1   &   2   &   3   &   4   &
e|-------------------------------------------------------------------------|
B|-------------------------------------------------------------------------|
G|-------------------------------------------------------------------------|
D|--2-2-2-3---0-2-----3---0-2-3-2-0-2-2-2-3---0-2-----3---0-2--------------|
A|--2-2-2-3---0-2-----3---0-2-3-2-0-2-2-2-3---0-2-----3---0-2--------------|
E|--2-2-2-3---0-2-----3---0-2-3-2-0-2-2-2-3---0-2-----3---0-2--------------|

    1   &   2   &   3   &   4   &   1   &   2   &   3   &   4   &
e|-------------------------------------------------------------------------|
B|-------------------------------------------------------------------------|
G|-------------------------------------------------------------------------|
D|--2-2-2-3---0-2-----3---0-2-3-2-0-2-2-2-3---0-2-----3---0-2-3------------|
A|--2-2-2-3---0-2-----3---0-2-3-2-0-2-2-2-3---0-2-----3---0-2-3------------|
E|--2-2-2-3---0-2-----3---0-2-3-2-0-2-2-2-3---0-2-----3---0-2-3------------|

[Verse]

[Chorus]


[Bridge]

Be......
    1   &   2   &   3   &   4   &   1   &   2   &   3   &   4   &
e|-------------------------------------------------------------------------|
B|-------------------------------------------------------------------------|
G|-------------------------------------------------------------------------|
D|--2-2-2-3---0-2-----3---0-2-3-2-0-2-2-2-3---0-2-----3---0-2--------------|
A|--2-2-2-3---0-2-----3---0-2-3-2-0-2-2-2-3---0-2-----3---0-2--------------|
E|--2-2-2-3---0-2-----3---0-2-3-2-0-2-2-2-3---0-2-----3---0-2--------------|

    1   &   2   &   3   &   4   &   1   &   2   &   3   &   4   &
e|-------------------------------------------------------------------------|
B|-------------------------------------------------------------------------|
G|--------------------------------------------------7----------------------|
D|--2-2-2-3---0-2-----3---0-2-3-2-0-0-----------------------------0--------|
A|--2-2-2-3---0-2-----3---0-2-3-2-0-0---------------5-------------0--------|
E|--2-2-2-3---0-2-----3---0-2-3-2-0-0-----------------------------0--------|

    1   &   2   &   3   &   4   &   1   &   2   &   3   &   4   &
e|-------------------------------------------------------------------------|
B|-------------------------------------------------------------------------|
G|-------------------------------------------------------------------------|
D|--2-2-2-3---0-2-----3---0-2-3-2-0-2-2-2-3---0-2-----3---0-2--------------|
A|--2-2-2-3---0-2-----3---0-2-3-2-0-2-2-2-3---0-2-----3---0-2--------------|
E|--2-2-2-3---0-2-----3---0-2-3-2-0-2-2-2-3---0-2-----3---0-2--------------|

    1   &   2   &   3   &   4   &   1   &   2   &   3   &   4   &
e|-------------------------------------------------------------------------|
B|-------------------------------------------------------------------------|
G|--------------------------------------------------7-----7-9--------------|
D|--2-2-2-3---0-2-----3---0-2-3-2-0-0---0-----0---0------------------------|
A|--2-2-2-3---0-2-----3---0-2-3-2-0-0---0-----0---0-5-----5-7--------------|
E|--2-2-2-3---0-2-----3---0-2-3-2-0-0---0-----0---0------------------------|


(The solo in the section is just a bunch of incoherent wah and effect, so I'm not going 
bother.  It's not the hard, so you can probably figure it out.)

[Acoustic Chorus]

The Chords:
e|--0-------------------0-----------------0--------------------------------|
B|--0----------6--------0--------6--------0--------6-------3------5--------|
G|--2----------5--------2--------5--------2--------5-------2------4--------|
D|--2----------3--------2--------3--------2--------3-------0------2--------|
A|--0----------3--------0--------3--------0--------3-------0------2--------|
E|-------------3-----------------3-----------------3-------0------2--------|

(on the last 4 chords this riff is played 4 times)
e|------------------------------------|
B|------------------------8-----------|
G|------------------------------------|
D|-----------7--9--10--9--------------|
A|------------------------------------|
E|------------------------------------|

[Chorus]


Here's the notes in the background

                                    trem.
e|--20--19------19--17----20--19---/19---------20--19---19--17-------------|
B|------20------20------------20------------20-----20---20-----------------|
G|----------------------------------------------------------------(etc...)-|
D|-------------------------------------------------------------------------|
A|-------------------------------------------------------------------------|
E|-------------------------------------------------------------------------|
Tap to rate this tab
 
# A B C D E F G H I J K L M N O P Q R S T U V W X Y Z