Song name
# A B C D E F G H I J K L M N O P Q R S T U V W X Y Z

Evanescence - Whisper tab

so while looking through all the tabs for this song i saw they were all pretty good,
but there were a few missing palm notes here and there or missing rhythm from the
 chorus so i thought id make my own tab of the song and how i play it :)
i feel it is very accurate.

tuning is drop D (D A D G B E)


main riff: x2
e|----------------------------------------------------------------|
B|----------------------------------------------------------------|
G|----------------------------------------------------------------|
D|----------------------------------------------------------------|
A|----5---5-6-----5---5-6-------3-----5---5-6-----5---8p6-5h6-3---|
D|--0---0-----0-0---0-----0-3h5-----0---0-----0-0---0----0--------|
    *   *     * *   *     *         *   *     * *   *    *

Chorus 1: x2
e|----------------------------------------------------|
B|----------------------------------------------------|
G|----------------------------------------------------|
D|--0---0---0-0-8---8---8/10-10---10---10-10-0---0---0|
A|--0---0---0-0-8---8---8/10-10---10---10-10-0---0---0|
D|--0---0---0-0-8---8---8/10-10---10---10-10-0---0---0|

------------------------------------------------------|
------------------------------------------------------|
------------------------------------------------------|
---8---8---8\5-5---5---3h2-2-2-3h2-2---3-2-2-3h2-5-5--|
---8---8---8\5-5---5---3h2-2-2-3h2-2---3-2-2-3h2-5-5--|
---8---8---8\5-5---5---3h2-2-2-3h2-2---3-2-2-3h2-5-5--|

 main riff: x1

verse 2: x2
e|-----------------------------------------------------------|
B|-----------------------------------------------------------|
G|-----------------------------------------------------------|
D|-----------------------------------------------------------|
A|--5--5--5-6-5-5--5-5-6-3-3-5--5--5--5-6-5-5--5-5-6-3-3-3---|
D|-----------------------------------------------------------|
    *  *  * * * *  * * * * * *  *  *  * * * *  * * * * * *

pre-chorus: x1
e|----------------------------|
B|----------------------------|
G|----------------------------|
D|----------------------------|
A|--5~----7~----10~----8~-----|
D|----------------------------|

Chorus 2: - same as chorus 1

bridge: x1
e|----------------------------|
B|----------------------------|
G|--7-----9-----12-----10-----|
D|----------------------------|
A|--5-----7-----10------8-----|
D|----------------------------|

e|-----------------|
B|-----------------|
G|-----------------|  x3
D|--0-0---0--0-0---|
A|--0-0---0--0-0---|
D|--0-0---0--0-0---|
    * *   *  * *
e|----------------------------------|
B|----------------------------------|
G|--------------------------7~------|
D|--0-0---0--0-0-0-0-0-0-0----------|
A|--0-0---0--0-0-0-0-0-0-0--5~------|
D|--0-0---0--0-0-0-0-0-0-0----------|
    * *   *  * * * * * * *
Solo: x1  (background guitar during solo is basically playing the guitar part for the chorus)
e|------------------------------------------------------------------------|
B|------------------------------------------------------------------------|
G|--14--14-14-14\12-12/14-15-15-15-15-15\14-14\12-12--12-12-12-12/10-12---|
D|------------------------------------------------------------------------|
A|--12--12-12-12\10-10/12-13-13-13-13-13\12-12\10-10--10-10-10-10/-8-10---|
D|------------------------------------------------------------------------|

e|-------------------------------------------------------------|
B|-------------------------------------------------------------|
G|--14-14-14-14-14\12-12\10-10-10-10\8-10--12-12-12-10--8-8-8--|
D|-------------------------------------------------------------|
A|--12-12-12-12-12\10-10\-8--8--8--8\6--8--10-10-10--8--6-6-6--|
D|-------------------------------------------------------------|

e|-------------------------------------------------------------------------|
B|-------------------------------------------------------------------------|
G|--10\9--10\9--10\9--10\9--10-10-9-9-7-7-7-9--10-10-10/12-12-12-12-10--8--|
D|-------------------------------------------------------------------------|
A|---8\7---8\7---8\7---8\7---8--8-7-7-5-5-5-7---8--8--8/10-10-10-10--8--6--|
D|-------------------------------------------------------------------------|

e|--------------------------------------------------------------------|
B|--------------------------------------------------------------------|
G|--8/14-14-14-15--14--17-17-17-17-15-14-14-10--10/12-14-14\9-9-9/10--|
D|--------------------------------------------------------------------|
A|--6/12-12-12-13--12--15-15-15-15-13-12-12--8---8/10-12-12\7-7-7/-8--|
D|--------------------------------------------------------------------|

e|-------------------------------------------|
B|-------------------------------------------|
G|--12-12-14~-----14~-----14~-----14~--------|
D|-------------------------------------------|
A|--10-10-12~-----12~-----12~-----12~--------|
D|-------------------------------------------|

Final Chorus: x1
e|---------------------------------------------------------------------------------|
B|---------------------------------------------------------------------------------|
G|---------------------------------------------------------------------------------|
D|--10---10---10-10-0---0---0---8---8---8\5-5---5---3h2-2-2-3h2-2---3-2-2-3h2-5-5--|
A|--10---10---10-10-0---0---0---8---8---8\5-5---5---3h2-2-2-3h2-2---3-2-2-3h2-5-5--|
D|--10---10---10-10-0---0---0---8---8---8\5-5---5---3h2-2-2-3h2-2---3-2-2-3h2-5-5--|
                                                        * *         * * *
e|---------------------------------------------------|
B|---------------------------------------------------|
G|---------------------------------------------------|
D|--0---0---0-0-8---8---8/10-10---10---10-10-0---0---|
A|--0---0---0-0-8---8---8/10-10---10---10-10-0---0---|
D|--0---0---0-0-8---8---8/10-10---10---10-10-0---0---|

-------------------------------------------------------|
-------------------------------------------------------|
-------------------------------------------------------|
0---8---8---8\5-5---5---3h2-2-2-3h2-2---3-2-2-3h2-5-5--|
0---8---8---8\5-5---5---3h2-2-2-3h2-2---3-2-2-3h2-5-5--|
0---8---8---8\5-5---5---3h2-2-2-3h2-2---3-2-2-3h2-5-5--|
                                                                                 * *     
    * * *

outro: repeat many times

guitar 1:
e|-----------------|
B|-----------------|
G|-----------------|
D|--0-0---0--0-0---|
A|--0-0---0--0-0---|
D|--0-0---0--0-0---|
    * *   *  * *

guitar 2:
e|---------------------------------|
B|---------------------------------|
G|--14-----15------17------19------|
D|---------------------------------|
A|--12-----13------15------17------|
D|---------------------------------|

legend:
~ - vibrato
/ - upward slide
\ - downward slide
p - pull off
h - hammer
* - palm mute
Tap to rate this tab
# A B C D E F G H I J K L M N O P Q R S T U V W X Y Z