Song name
# A B C D E F G H I J K L M N O P Q R S T U V W X Y Z

Evanescence - End Of The Dream tab

Artist: Evanescence
Title: End of the Dream
Album: Evanescence

Tuning: (low to high) A# F A# D# G C

Tabbed by: FireReaverX


Intro
C |------------------------------------------------------------------|
G |------------------------------------------------------------------|
D#|------------------------------------------------------------------|
A#|-5--/7-------5--/7-------5--/7-------5--/7-------5*---------------| 2x
F |-3--/5-------3--/5-------3--/5-------3--/5-----------5*-----------|
A#|---------0-----------0-----------0-----------0-----------5*-------|


Verse
C |-0----------------------------------------------------------------|
G |-3----------------------------------------------------------------|
D#|-2----------------------------------------------------------------|
A#|-0----------------------------------------------------------------|
F |-0----------------------------------------------------------------|
A#|-0----------------------------------------------------------------|

(empty) x3

C |-0----------------------------------------------------------------|
G |-3----------------------------------------------------------------|
D#|-2----------------------------------------------------------------|
A#|-0----------------------------------------------------------------|
F |-0----------------------------------------------------------------|
A#|-0----------------------------------------------------------------|

C |-1----------------------------------------------------------------|
G |-3----------------------------------------------------------------|
D#|-2----------------------------------------------------------------|
A#|-0----------------------------------------------------------------|
F |-0----------------------------------------------------------------|
A#|-0----------------------------------------------------------------|

C |-0-----------------------------------------6----------------------|
G |-3----------------------------------------------------------------|
D#|-2----------------------------------------------------------------|
A#|-0----------------------------------------------------------------|
F |-0----------------------------------------------------------------|
A#|-0----------------------------------------------------------------|

C |-------------------2----------------------------------------------|
G |-------------3----------------------------------------------------|
D#|-------2----------------------------------------------------------|
A#|-0----------------------------------------------------------------|
F |------------------------------------------------------------------|
A#|------------------------------------------------------------------|


Pre-chorus
C |-----------------------------------------------------------------|
G |-----------------------------------------------------------------|
D#|-----------------------------------------------------------------|
A#|-8---8---8---8---8---8---8---8---7---7---7---7---7---7---7---7---|
F |-8---8---8---8---8---8---8---8---7---7---7---7---7---7---7---7---|
A#|-8---8---8---8---8---8---8---8---7---7---7---7---7---7---7---7---|

C |-----------------------------------------------------------------|
G |-----------------------------------------------------------------|
D#|-----------------------------------------------------------------|
A#|-----------------------------------------------------------------|
F |-3---5-------8---5-------3---5-------3---5-------8---5---3-------|
A#|---------0-0---------0-0---------0-0---------0-0-----------------|
            . .         . .         . .         . .

C |-----------------------------------------------------------------|
G |-----------------------------------------------------------------|
D#|-----------------------------------------------------------------|
A#|-8---8---8---8---8---8---8---8---7---7---7---7---7---7---7---7---|
F |-8---8---8---8---8---8---8---8---7---7---7---7---7---7---7---7---|
A#|-8---8---8---8---8---8---8---8---7---7---7---7---7---7---7---7---|


Chorus
C |-----------------------------------------------------------------|
G |-----------------------------------------------------------------|
D#|-----------------------------------------------------------------|
A#|-0-------0---3-----------3---3---7---7---7---7---7---7---7---7---|
F |-0-------0---3-----------3---3---7---7---7---7---7---7---7---7---|
A#|-0-------0---3-----------3---3---7---7---7---7---7---7---7---7---|

C |----------------------------------------------------------------------|
G |----------------------------------------------------------------------|
D#|----------------------------------------------------------------------|
A#|-8-------8---8-----------8---8---5-------5---10---10---------10-------|
F |-8-------8---8-----------8---8---5-------5---10---10---------10-------|
A#|-8-------8---8-----------8---8---5-------5---10---10---10-10-10-------|
                                                           .  .

C |-----------------------------------------------------------------|
G |-----------------------------------------------------------------|
D#|-----------------------------------------------------------------|
A#|-0-------0---3-----------3---3---7---7---7---7---7---7---7---7---|
F |-0-------0---3-----------3---3---7---7---7---7---7---7---7---7---|
A#|-0-------0---3-----------3---3---7---7---7---7---7---7---7---7---|

C |-----------------------------------------------------------------|
G |-----------------------------------------------------------------|
D#|-----------------------------------------------------------------|
A#|-8-------8---8-----------8---8---5---5---5---5---5---5---5---5---|
F |-8-------8---8-----------8---8---5---5---5---5---5---5---5---5---|
A#|-8-------8---8-----------8---8---5---5---5---5---5---5---5---5---|


Transition
C |-----------------------------------------------------------------|
G |-----------------------------------------------------------------|
D#|-----------------------------------------------------------------|
A#|-0-----0-----0-----0-----0-0-----0-----0-----0-----0-----0-0-----| 2x
F |-0-----0-----0-----0-----0-0-----0-----0-----0-----0-----0-0-----|
A#|-0-----0-0-0-0-----0-0-0-0-0-0-0-0-----0-0-0-0-----0-0-0-0-0-0-0-|
            . .         . .     . .         . .         . .     . .


Verse / Intro riff
Pre-chorus
Chorus


Bridge
C |-----------------------------------------------------------------|
G |-----------------------------------------------------------------|
D#|-----------------------------------------------------------------|
A#|-----------------------------------------------------------------|
F |-----------------------------------------------------------------|
A#|-0---00000---0---0-0---0-0---0-------00000---0---0-0---0-0-------|
    .   .....   .   . .   . .   .       .....   .   . .   . .

C |-----------------------------------------------------------------|
G |-----------------------------------------------------------------|
D#|-----------------------------------------------------------------|
A#|---------------------------------8-----8-----5-----5-----5-------|
F |---------------------------------8-----8-----5-----5-----5-------|
A#|-0---00000---0---0-0---0-0---0-0-8-----8-----5-----5-5-5-5---5-5-|
    .   .....   .   . .   . .   . .                     . .     . .

C |-----------------------------------------------------------|
G |-----------------------------------------------------------|
D#|-----------------------------------------------------------|
A#|-----------------------------------------------------------|
F |-----------------------------------------------------------|
A#|-0---00000---0---0-0---0-0---0-------00000---0---0-0---0-0-|
    .   .....   .   . .   . .   .       .....   .   . .   . .

C |-------------------------------------------------------------------------|
G |-------------------------------------------------------------------------|
D#|-------------------------------------------------------------------------|
A#|-8-----8-----8-----8-----8-------10---10---10---10---10---10---10---10---|
F |-8-----8-----8-----8-----8-------10---10---10---10---10---10---10---10---|
A#|-8-----8-8-8-8-----8-8-8-8---8-8-10---10---10---10---10---10---10---10---|
            . .         . .     . .


Chorus


Ending
C |-----------------------------------------------------------|
G |-----------------------------------------------------------|
D#|-----------------------------------------------------------|
A#|-----------------------------------------------------------|
F |-----------------------------------------------------------|
A#|-0---00000---0---0-0---0-0---0-------00000---0---0-0---0-0-|
        .....   .   . .   . .   .       .....   .   . .   . .


| /  slide up
| \  slide down
| h  hammer-on
| p  pull-off
| b  bend
| r  release bend
| *  natural harmonic
| .  palm mute
===============================================================================
Tap to rate this tab
 
# A B C D E F G H I J K L M N O P Q R S T U V W X Y Z