Song name
# A B C D E F G H I J K L M N O P Q R S T U V W X Y Z

Evanescence - Secret Door tab

TUNING:STANDARD


 INTRO
|-------15-----|
|-----17--17---|
|---16------16-|
|-14-----------| 4x
|--------------|
|--------------|


 VERSE

|-------15----------15----------14----------14-----|
|-----17--17------17--17------16--16------16--16---|
|---16------16--16------16--16------16--16------16-|
|-14----------14----------13----------13-----------| 2x
|--------------------------------------------------|
|--------------------------------------------------|

|-------15-----------------------------------------|
|-----17--17--------17----------15----------16-----|
|---16------16----17--17------------------16--16---|
|-14------------17------17----17--17----16------16-|
|-------------15------------17------1714-----------|
|-------------------------15-----------------------|

|-------15-----|
|-----17--17---|
|---16------16-|
|-14-----------| 2x
|--------------|
|--------------|

|-------15----------15----------14----------14-----|
|-----17--17------17--17------16--16------16--16---|
|---16------16--16------16--16------16--16------16-|
|-14----------14----------13----------13-----------| 2x
|--------------------------------------------------|
|--------------------------------------------------|

|-------15-----------------------------------------|
|-----17--17--------17----------15----------16-----|
|---16------16----17--17------------------16--16---|
|-14------------17------17----17--17----16------16-|
|-------------15------------17------1714-----------|
|-------------------------15-----------------------|

|-------15-------|
|-----17--17-----|
|---16------16---|
|-14----------14-|
|----------------|
|----------------|

 
  CHORUS

 D-Am-D-Am-D-Am-D-C-B 
                                                             
             
 VERSE

|-------15-----|
|-----17--17---|
|---16------16-|
|-14-----------| 2x
|--------------|
|--------------|

|-------15----------15----------14----------14-----|
|-----17--17------17--17------16--16------16--16---|
|---16------16--16------16--16------16--16------16-|
|-14----------14----------13----------13-----------| 2x
|--------------------------------------------------|
|--------------------------------------------------|

|-------15-----------------------------------------|
|-----17--17--------17----------15----------16-----|
|---16------16----17--17------------------16--16---|
|-14------------17------17----17--17----16------16-|
|-------------15------------17------1714-----------|
|-------------------------15-----------------------|


REPEAT CHORUS


 BRIDGE

|-----------14----15----17-|
|-----17-------------------|
|---16----16----16----16---|
|-14----14----14----14-----|
|--------------------------|
|--------------------------|
 
|-------15----------15----------14----------14-----|
|-----17--17------17--17------16--16------16--16---|
|---16------16--16------16--16------16--16------16-|
|-14----------14----------13----------13-----------| 2x
|--------------------------------------------------|
|--------------------------------------------------|

|-------15-----------------------------------------|
|-----17--17--------17----------15----------16-----|
|---16------16----17--17------------------16--16---|
|-14------------17------17----17--17----16------16-|
|-------------15------------17------1714-----------|
|-------------------------15-----------------------|

|-------15-------|
|-----17--17-----|
|---16------16---|
|-14----------14-|
|----------------|
|----------------|
 

REPEAT CHORUS

 OUTRO
|---15----15----15----15---15-|
|-----17----17----17----17-17-|
|--------------------------16-|
|-14-----------------------14-|
|-------15----14----12--------|
|-----------------------------|
Tap to rate this tab
 
# A B C D E F G H I J K L M N O P Q R S T U V W X Y Z