Song name
# A B C D E F G H I J K L M N O P Q R S T U V W X Y Z

Evanescence - Whisper tab

Help us improve GuitareTab! Take a short survey!
Evanescence-Whisper
Album: Fallen
Year: 2003
Composer: Amy Lee, Ben Moody
Genre: Metal
Lenght: 05:28

Tuning; D,G,E,F,A,D
(I dont know if this is what they use
but I think its the easiest way to play this song,
if you want to play with only drop-D,
just move everything on G and E down two steps, for example;
G-7---- = A-5----)

Intro
(just a slightly PM on D, just not to make it sound to blury)
D------------------------------------------------------------|
A------------------------------------------------------------|
F------------------------------------------------------------|
E----------------------------------x2------------------------|
G--7-8-7-8---5--7-8-7-10p8-7s8-5-----------------------------|
D-0-0-0-0-5h7--0-0-0-----------------------------------------|

Vers1
(no guitar)

Ref
        Dont turn away     dont try to hide
D---------------------------------------------------|
A---------------------------------------------------|
F---------------------------------------------------|
E-\\\\\-9~----10~--12~--7~~-9~----7~--4xx4xx4xx4----|
G-\\\\\-9~----10~--12~--7~~-9~----7~--4xx4xx4xx4----|
D-------7~----8~---10~--5~~-7~----5~--2xx2xx2xx2----|

  Dont close your eyes dont turn out the light
D---------------------------------------------------|
A---------------------------------------------------|
F---------------------------------------------------|
E-9~----10~---12~--7~~--9~----7~---4xx4xx4xx4-------|
G-9~----10~---12~--7~~--9~----7~---4xx4xx4xx4-------|
D-7~----8~----10~--5~~--7~----5~---2xx2xx2xx2-------|

(just a slightly PM on D, just not to make it sound to blury)
D------------------------------------------------------------|
A------------------------------------------------------------|
F------------------------------------------------------------|
E----------------------------------x1------------------------|
G--7-8-7-8---5--7-8-7-10p8-7s8-5-----------------------------|
D-0-0-0-0-5h7--0-0-0-----------------------------------------|


Vers2(01:33)
(just a slightly PM on D, just not to make it sound to blury)
D------------------------------------------------------------|
A------------------------------------------------------------|
F------------------------------------------------------------|
E----------------------------------x2------------------------|
G--7-8-7-8---5--7-8-7-10p8-7s8-5-----------------------------|
D-0-0-0-0-5h7--0-0-0-----------------------------------------|

D-----------------------------------------------------------|
A-----------------------------------------------------------|
F-----------------------------------------------------------|
E-----------------------------------------------------------|
G-9~~-12~~-10~~---------------------------------------------|
D-----------------------------------------------------------|

Ref
        Dont turn away     dont try to hide
D---------------------------------------------------|
A---------------------------------------------------|
F---------------------------------------------------|
E-\\\\\-9~----10~--12~--7~~-9~----7~--4xx4xx4xx4----|
G-\\\\\-9~----10~--12~--7~~-9~----7~--4xx4xx4xx4----|
D-------7~----8~---10~--5~~-7~----5~--2xx2xx2xx2----|

  Dont close your eyes dont turn out the light
D---------------------------------------------------|
A---------------------------------------------------|
F---------------------------------------------------|
E-9~----10~---12~--7~~--9~----7~---4xx4xx4xx4-------|
G-9~----10~---12~--7~~--9~----7~---4xx4xx4xx4-------|
D-7~----8~----10~--5~~--7~----5~---2xx2xx2xx2-------|

Pre-solo
(cant really figure it out but this sounds cool,
if you dont want ot bend just add some vibrato instead)
D-------------------------------|
A-12b13b14r13r12~~--------------|
F-------------------------------|
E-------------------------------|
G-------------------------------|
D-------------------------------|

Solo
(Guitar 1)
D----------------------------------------------|
A----------------------------------------------|
F----------------------------------------------|
E-s999-7h9s1010-9-77p5h7-999-7-5-5554577755545-|
G----------------------------------------------|
D----------------------------------------------|

E-5p4-5p4-5p4-54-222-45-777-5-4-999-10-9-------


D----------------------------------------|
A----------------------------------------|
F----------------------------------------|
E-121212-10-9-555-7s9-444-5s7-8p7h8p7h8-|
G----------------------------------------|
D----------------------------------------|

(Guitar2)
D---------------------------------------------|
A---------------------------------------------|
F---------------------------------------------|
E-9~----10~---12~--7~~--9~----7~---4xx4xx4xx4-|
G-9~----10~---12~--7~~--9~----7~---4xx4xx4xx4-|
D-7~----8~----10~--5~~--7~----5~---2xx2xx2xx2-|

D---------------------------------------------|
A---------------------------------------------|
F---------------------------------------------|
E-9~----10~---12~--7~~--9~----7~---4xx4xx4xx4-|
G-9~----10~---12~--7~~--9~----7~---4xx4xx4xx4-|
D-7~----8~----10~--5~~--7~----5~---2xx2xx2xx2-|


Ref
        Dont turn away     dont try to hide
D------------------------------------------------|
A------------------------------------------------|
F------------------------------------------------|
E------------------12~--7~~-9~----7~--4xx4xx4xx4-|
G------------------12~--7~~-9~----7~--4xx4xx4xx4-|
D------------------10~--5~~-7~----5~--2xx2xx2xx2-|

  Dont close your eyes dont turn out the light
D------------------------------------------------|
A------------------------------------------------|
F------------------------------------------------|
E-9~----10~---12~--7~~--9~----7~---4xx4xx4xx4----|
G-9~----10~---12~--7~~--9~----7~---4xx4xx4xx4----|
D-7~----8~----10~--5~~--7~----5~---2xx2xx2xx2----|

Outro
 Dont turn away     dont try to hide
D------------------------------------------------|
A------------------------------------------------|
F------------------------------------------------|
E-99----1010-1212-77--99----7744-44-------------|
G-99----1010-1212-77--99----7744-44-------------|
D-77----88---1010-55--77----5522-22-------------|

  Dont close your eyes dont turn out the light
D------------------------------------------------|
A------------------------------------------------|
F------------------------------------------------|
E-99----1010-1212-77--99----7744-44-------------|
G-99----1010-1212-77--99----7744-44-------------|
D-77----88---1010-55--77----5522-22-------------|

h hammer on
p pull of
s slide
b bend
r releese
~ let ring
\ pick scrapping

----------------------------------------------------------------------------
An awesome song thats fun and easy to play! This is my first tab so please, dont be to 
:p
Corections, comments or questions?
Please e-mail me at: beanilsson15@hotmail.com
----------------------------------------------------------------------------

Lyrics:

Catch me as I fall
Say youre here and its all over now
Speaking to the atmosphere
No ones there and I fall into myself
This truth drives me into madness
I know I can stop the pain
if I will it all away

Dont turn away
Dont give into the pain
Dont try to hide
Though theyre screaming your name
Dont close your eyes
God knows what lies behind them
Dont turn out the light
Never sleep never die

Im frightened by what I see
But somehow I know that theres much more to come
Immobilized by my fear
And soon to be blinded by tears
I can stop the pain if I will it all away
if I will it all away

Dont turn away
Dont give into the pain
Dont try to hide
Though theyre screaming your name
Dont close your eyes
God knows what lies behind them
Dont turn out the light
Never sleep never die

Fallen angels at my feet
Whispered voices at my ear
Death before my eyes
Lying next to me I fear
She beckons me shall I give in
Upon my end shall I begin
Forsaking all Ive fallen for I rise to meet the end

Dont turn away
Dont give into the pain
Dont try to hide
Though theyre screaming your name
Dont close your eyes
God knows what lies behind them
Dont turn out the light
Never sleep never die
Related for Whisper tab