Guitaretab - guitar tabs
Song name
# A B C D E F G H I J K L M N O P Q R S T U V W X Y Z

Evanescence - Farther Away tab

-------------------------------------------------------------------------------
			     FARHER AWAY-Evanescence
-------------------------------------------------------------------------------
Tabbed by:Kiera
Email:kiera.11@sbcglobal.net

This is the live version from their cologne performance, it sounds a lot cooler than the
but it isnít much different.
Tuning:Drop D
Guitar 1:John Lecompt
Guitar 2:Ben Moody

b=bend (it is different, every time u see a bend hit the string and bend up and than hit
string again and bend the string back down than hit the string one last time and do not
at all, Ben does these bends a lot and they aren't that hard.)

Updates:
08/30/08-Added Ben's solo and add Guitar 1 on Bridge, and will change E string to D 
as soon as I receive Previous update.

Intro/Verse) Guitar 1 (repeat as many times necessary)
e|---------------------------------------------------------------------------|
B|---------------------------------------------------------------------------|
G|---------------------------------------------------------------------------|
D|--0-0-0-0----0-0-0-0---0-0-------------------------------------------------|
A|--0-0-0-0----0-0-0-0---0-0-------------------------------------------------|
D|--0-0-0-0----0-0-0-0---0-0-------------------------------------------------|

 Guitar 2 (fades in)play twice (the first five notes are only in the first repeat u play
and u hit that note however many times necessary)
e|---------------------------0-0-0----0----------0-0-0---0-------------------|
B|------------------13-13-13-------13---12-12-12-------12--------------------|
G|----------------------------------------------------------14-14-14-14-14b--|
D|--14-14-14-14-14-----------------------------------------------------------|
A|---------------------------------------------------------------------------|
D|---------------------------------------------------------------------------|

Chorus-Guitar 1 the () represent play on second repeat
e|---------------------------------------------------------------------------|
B|---------------------------------------------------------------------------|
G|---------------------------------------------------------------------------|
D|---------------------------------------------------------------------------|
A|-0-0-0-----2-2-2------2h3p2-/5-5-5\3-3-3\2-2-2-2h3p2-----------------------|
D|------2-2-2-----2-2-2--------------------------------(2)-------------------|
[ Tab from: http://www.guitaretab.com/e/evanescence/34070.html ]
Guitar 2
e|-------------------------0-0-0---0----------0-0-0---0----------------------|
B|----------------13-13-13-------13--12-12-12-------12-----------------------|
G|-------------------------------------------------------14-14-14-14-14b-----|
D|-14-14-14-14-14------------------------------------------------------------|
A|---------------------------------------------------------------------------|
D|---------------------------------------------------------------------------|

e|-----------0-0-0-----------------------------------------------------------|
B|--13-13-13-------12-13-15-15-15-12-12-12-13-12-----------------------------|
G|---------------------------------------------------------------------------|
D|-----------------------------------------------14-14-14-14-14-14b----------|
A|---------------------------------------------------------------------------|
D|---------------------------------------------------------------------------|

Ben alternates how he bends the last one in many different ways so just have fun with
part.  And just to let you know in order to have the same sound put it on high
verse and chorus will be played once more.

Bridge played by both guitars (palm mute open)
e|---------------------------------------------------------------------------|
B|---------------------------------------------------------------------------|
G|---------------------------------------------------------------------------|
D|---x-x-x-x-x-x-x-x---------------------------------------------------------|
A|---x-x-x-x-x-x-x-x---------------------------------------------------------|
D|---x-x-x-x-x-x-x-x---------------------------------------------------------|

repeatx2
e|---------------------------------------------------------------------------|
B|---------0------------------0---------------0------------------------------|
G|-------5-----5-2----------5-----5-2-------5----5-2-----5-------------------|
D|-----2------------------2---------------2--------------x-------------------|
A|---0------------------2---------------5----------------3-------------------|
D|---------------------------------------------------------------------------|

There's an ending to this with bens crazy bends and stuff but that'll take a while I'll
it when I can.

This is my first tab so don't be picky.
Hope you enjoy:)

| /  slide up
| \  slide down
| h  hammer-on
| p  pull-off
| ~  vibrato
| +  harmonic
| x  Mute note
===============================================================================
Related for Farther Away tab