Song name
# A B C D E F G H I J K L M N O P Q R S T U V W X Y Z

Evanescence - Sweet Sacrifice Acoustic chords

Highlighted       Show chord diagrams
Evanescence - Sweet sacrifice

This is how i play it.

Tuning: standard


F#m                D              C#m
It's true, we're all a little insane.
    F#m
But it's so clear,
         D        C#m
Now that I'm unchained.


For this part see tab at bottom

Fear is only in our minds,
Taking over all the time.
Fear is only in our minds     F#m
but it's taking over all the time.

F#m                    D
You poor sweet innocent thing.
F#m                    D
Dry your eyes and testify.
F#m                       D
You know you live to break me.
F#m                    D
Don't deny sweet sacrifice.

F#m
One day
            D          C#m
I'm gonna forget your name,
F#m
And one sweet day,
                    D          C#m
you're gonna drown in my lost pain.


see tab

Fear is only in our minds,
Taking over all the time.
Fear is only in our minds     F#m
but it's taking over all the time.

F#m                    D
You poor sweet innocent thing.
F#m                    D
Dry your eyes and testify.
F#m                      D            F#m
And oh you love to hate me, don't you, honey?
            D    F#m    Gm    A(5th position)    
B(7th position)
I'm your sacrifice.

F#m    Gm    A    B

F#m    Gm        A    B
Do you wonder why you hate?
F#m        Gm         A       B        F#m
Are you still too weak to survive your mistakes?

F#m                    D
You poor sweet innocent thing.
F#m                    D
Dry your eyes and testify.
F#m                       D
You know you live to break me.
F#m                    D
Don't deny sweet sacrifice.


tab

E--------------------------------------------------|
B--2--------2-----3-----2-----3--------------------|
G--------4--------------------------4-----4-----4--|  X3
D-----4--------4-----4-----4-----4-----4-----4-----|
A--------------------------------------------------|
E--------------------------------------------------|

E-----------------------0-----2-----3-----2-----0--|
B--2--------2-----3--------------------------------|
G--------4-----------------------------------------|
D-----4--------4-----4-----4-----4-----4-----4-----|
A--------------------------------------------------|
E--------------------------------------------------|

Enjoy
Tap to rate this tab
# A B C D E F G H I J K L M N O P Q R S T U V W X Y Z