Song name
# A B C D E F G H I J K L M N O P Q R S T U V W X Y Z

Evanescence - My Last Breath tab

Song: My Last Breath
Artist: Evanescence
Tuning: Drop D (1/2 Step Down)

Tabbed By Wesley Jones (Gonzo_uk@hotmail.co.uk)

/ = Slide Up
\ = Slide Down
h = Hammer On
p = Pull Off

This tab is the proper way to play this song with the correct chords in the correct tuning.
If there is an extra strum here and there you think is needed then play it with it! This 
just a guide.

-------------
Introduction
-------------

E------------------------------------------|
B------------------------------------------|
G------------------------------------------|
D-----------5-5---1-1-1---3-3-3-3-3-3------|
A--1h3p1p0--5-5---1-1-1---3-3-3-3-3-3------|
D-----------5-5-0-1-1-1-0-3-3-3-3-3-3------|

E------------------------------------------|
B------------------------------------------|
G------------------------------------------|
D-----------5-5---1-1-1---3-3-3-3-3-3-3-3--|
A--1h3p1p0--5-5---1-1-1---3-3-3-3-3-3-3-3--|
D-----------5-5-0-1-1-1-0-3-3-3-3-3-3-3-3--|

E-----------|
B-----------|
G-----------|
D----3/5\0--|
A----3/5\0--|
D--0-3/5\0--|

-----------
Chorus 1
-----------

E------------------------------------------|
B------------------------------------------|
G------------------------------------------|
D-----------5-5---1-1-1---3-3-3-3-3-3------|
A--1h3p1p0--5-5---1-1-1---3-3-3-3-3-3------|
D-----------5-5-0-1-1-1-0-3-3-3-3-3-3------|

E------------------------------------------|
B------------------------------------------|
G------------------------------------------|
D-----------5-5---1-1-1---3-3-3-3-3-3-3----|
A--1h3p1p0--5-5---1-1-1---3-3-3-3-3-3-3----|
D-----------5-5-0-1-1-1-0-3-3-3-3-3-3-3----|

E------------------------------------------|
B------------------------------------------|
G------------------------------------------|
D--5-5---1-1-1---3-3-3-3-3-3---------------|
A--5-5---1-1-1---3-3-3-3-3-3---------------|
D--5-5-0-1-1-1-0-3-3-3-3-3-3---------------|


E------------------------------------------|
B------------------------------------------|
G------------------------------------------|
D-----------5-5---1-1-1---3-3-3-3-3-3-3-3--|
A--1h3p1p0--5-5---1-1-1---3-3-3-3-3-3-3-3--|
D-----------5-5-0-1-1-1-0-3-3-3-3-3-3-3-3--|

E-----------|
B-----------|
G-----------|
D----3/5\0--|
A----3/5\0--|
D--0-3/5\0--|

-----------
Chorus 2
-----------

E------------------------------------------|
B------------------------------------------|
G------------------------------------------|
D-----------5-5---1-1-1---3-3-3-3-3-3------|
A--1h3p1p0--5-5---1-1-1---3-3-3-3-3-3------|
D-----------5-5-0-1-1-1-0-3-3-3-3-3-3------|

E------------------------------------------|
B------------------------------------------|
G------------------------------------------|
D-----------5-5---1-1-1---3-3-3-3-3-3-3-3--|
A--1h3p1p0--5-5---1-1-1---3-3-3-3-3-3-3-3--|
D-----------5-5-0-1-1-1-0-3-3-3-3-3-3-3-3--|

E------------------------------------------|
B------------------------------------------|
G------------------------------------------|
D--5-5---1-1-1---3-3-3-3-3-3---------------|
A--5-5---1-1-1---3-3-3-3-3-3---------------|
D--5-5-0-1-1-1-0-3-3-3-3-3-3---------------|


E------------------------------------------|
B------------------------------------------|
G------------------------------------------|
D-----------5-5---1-1-1---3-3-3-3-3-3-3-3--|
A--1h3p1p0--5-5---1-1-1---3-3-3-3-3-3-3-3--|
D-----------5-5-0-1-1-1-0-3-3-3-3-3-3-3-3--|

----------
Bridge
----------

E---------------------------------|
B---------------------------------|
G---------------------------------|
D---------------------------------|
A--0-0-0-0-0-0-0-0-0-0-0-0-0-0-0--|
D--0-0-0-0-0-0-0-0-0-0-0-0-0-0-0--|
   X X X X X X X X X X X X X X X

E---------------------------------------------------------------------------|
B---------------------------------------------------------------------------|
G---------------------------------------------------------------------------|
D---------------------------------------------------------------------------|
A------0-0-0-0-0-0-----------0-0-0-0-0-0------------0-0-0-0-0-0-------------|
D--1p0-0-0-0-0-0-0-3p1-0-1p0-0-0-0-0-0-0-3p1-0-1p0--0-0-0-0-0-0--3p1-0-1p0--|
       X X X X               X X X X                X X X X

E---------------------------------------------------------------------------|
B---------------------------------------------------------------------------|
G---------------------------------------------------------------------------|
D----------3-----3/5--------------------------------------------------------|
A--0-0-0-0-1-0-0-1/3-------0-0-0-0-0-0-----------0-0-0-0-0-0----------------|
D--0-0-0-0---0-0-----0-1p0-0-0-0-0-0-0-3p1-0-1p0-0-0-0-0-0-0-3p1-0-1p0------|
   X X X X                 X X X X               X X X X

E------------------------------------|
B------------------------------------|
G------------------------------------|
D----------------------------------5-|
A--0-0-0-0-0-0-------------0-0-0-0-3-|
D--0-0-0-0-0-0--3p1-0-1p0--0-0-0-0---|
   X X X X                 X X X X

-------------------
Chorus 3/Outro
-------------------

E------------------------------------------|
B------------------------------------------|
G------------------------------------------|
D-----------5-5---1-1-1---3-3-3-3-3-3------|
A--1h3p1p0--5-5---1-1-1---3-3-3-3-3-3------|
D-----------5-5-0-1-1-1-0-3-3-3-3-3-3------|

E------------------------------------------|
B------------------------------------------|
G------------------------------------------|
D-----------5-5---1-1-1---3-3-3-3-3-3-3-3--|
A--1h3p1p0--5-5---1-1-1---3-3-3-3-3-3-3-3--|
D-----------5-5-0-1-1-1-0-3-3-3-3-3-3-3-3--|


E------------------------------------------|
B------------------------------------------|
G------------------------------------------|
D--5-5---1-1-1---3-3-3-3-3-3---------------|
A--5-5---1-1-1---3-3-3-3-3-3---------------|
D--5-5-0-1-1-1-0-3-3-3-3-3-3---------------|

E------------------------------------------|
B------------------------------------------|
G------------------------------------------|
D-----------5-5---1-1-1---3-3-3-3-3-3-3-3--|
A--1h3p1p0--5-5---1-1-1---3-3-3-3-3-3-3-3--|
D-----------5-5-0-1-1-1-0-3-3-3-3-3-3-3-3--|

E------------------------------------------|
B------------------------------------------|
G------------------------------------------|
D--5-5---1-1-1---3-3-3-3-3-3---------------|
A--5-5---1-1-1---3-3-3-3-3-3---------------|
D--5-5-0-1-1-1-0-3-3-3-3-3-3---------------|

E------------------------------------------|
B------------------------------------------|
G------------------------------------------|
D-----------5-5---1-1-1---3-3-3-3-3-3-3-3--|
A--1h3p1p0--5-5---1-1-1---3-3-3-3-3-3-3-3--|
D-----------5-5-0-1-1-1-0-3-3-3-3-3-3-3-3--|

E------------------------------------------|
B------------------------------------------|
G------------------------------------------|
D--5-5---1-1-1---3-3-3-3-3-3---------------|
A--5-5---1-1-1---3-3-3-3-3-3---------------|
D--5-5-0-1-1-1-0-3-3-3-3-3-3---------------|


E------------------------------------------|
B------------------------------------------|
G------------------------------------------|
D-----------5-5---1-1-1---3-3-3-3-3-3-3-3--|
A--1h3p1p0--5-5---1-1-1---3-3-3-3-3-3-3-3--|
D-----------5-5-0-1-1-1-0-3-3-3-3-3-3-3-3--|

E------------------------------------------|
B------------------------------------------|
G------------------------------------------|
D--5-5---1-1-1---3-3-3-3-3-3---------------|
A--5-5---1-1-1---3-3-3-3-3-3---------------|
D--5-5-0-1-1-1-0-3-3-3-3-3-3---------------|

E------------------------------------------|
B------------------------------------------|
G------------------------------------------|
D--5-5---1-1-1---3-3-3-3-3-3---------------|
A--5-5---1-1-1---3-3-3-3-3-3---------------|
D--5-5-0-1-1-1-0-3-3-3-3-3-3---------------|


Repeats to Fade Out...
Tap to rate this tab
# A B C D E F G H I J K L M N O P Q R S T U V W X Y Z