Song name
# A B C D E F G H I J K L M N O P Q R S T U V W X Y Z

Evanescence - Last Day tab

Band- Evanescence
Song- The Last Day

E|----------------------------------------------------------------||
B|-------------------------------0-------0------------------------||
G|--------0----------0---------0--0----0--0-----------------------||
D|-----9----9--9--12---12-12--9-9--9--9-9--9----------------------||repeat 5x
A|---10-10---10--9--9----9--10------10----------------------------||
E|--0-------------------------------------------------------------||

E|----------------------------------------------------------------||
B|----------------------111h3p0h111h3p1---------------------------||
G|------0---------0-----000-0-0-000-0-0---------------------------||
D|----9---9-9---7--7-7--222-2-2-222-2-2---------------------------||
A|---7-7---7-7/5-5--5-5/333-3-3-333-3-3---------------------------||
E|--0-------------------------------------------------------------||


E|----|----|--------------------------||
B|----|----|-111h3p0h111h3p1----------||
G|--9-|--7-|-000-0-0-000-0-0----------||
D|--9-|--7-|-222-2-2-222-2-2----------||<---strum
A|--7-|--5-|-333-3-3-333-3-3----------||
E|--0-|--0-|--------------------------||
Tap to rate this tab
# A B C D E F G H I J K L M N O P Q R S T U V W X Y Z