Song name
# A B C D E F G H I J K L M N O P Q R S T U V W X Y Z

Evanescence - Call Me When Your Sober tab


Drop D tuning
D A D G B E

key-

palm mute= *
slide- /
h= hammer on


intro
[-------------------------------------]x2
[-----------8--7--5-----------8--7--3-]
[-------------------------------------]
[-0-0h(2)22---------0-0h(2)22---------]
[-0-0h(2)22---------0-0h(2)22---------]
[-0-0h(2)22--00-00--0-0h(2)22--00-00--]
             ** **             ** **

[-----------]x4
[-----------]
[-----------]
[-0-0h(2)22-]
[-0-0h(2)22-]
[-0-0h(2)22-]


[-------------------------------------]x2
[-----------8007005-----------8007003-]
[-------------------------------------]
[-0-0h(2)22---------0-0h(2)22---------]
[-0-0h(2)22---------0-0h(2)22---------]
[-0-0h(2)22---------0-0h(2)22---------]


[--------------------------------]
[--------------------------------]
[--------------------------------]
[-10-1010-10-1010-10-1010-9-99-9-]
[-10-1010-10-1010-10-1010-9-99-9-]
[-10-1010-10-1010-10-1010-9-99-9-]
     ****    ****    ****   ** hold last note


chorus
[--------------------------------------------]
[--------------------------------------------]
[--------------------------------------------]
[-2---/10---/2---/1---/5---/1---/5---/1----5-]
[-2---/10---/2---/1---/5---/1---/5---/1----5-]
[-2---/10---/2---/1---/5---/1---/5---/1----5-]


[-----------]x2
[-----------]
[-----------]
[-0-0h(2)22-]
[-0-0h(2)22-]
[-0-0h(2)22-]


[------------------]
[------------------]
[------------------]
[-0h(2)22----------]
[-0h(2)22----------]
[-0h(2)22-2-2-2-22-]
          * * * **

[--------------------]x3
[--------------------]
[--------------------]
[-0-0h(2)22----------]
[-0-0h(2)22----------]
[-0-0h(2)22-2-2-2-22-]
            * * * **



[-------------------------------------]x2
[-----------8007005-----------8007003-]
[-------------------------------------]
[-0-0h(2)22---------0-0h(2)22---------]
[-0-0h(2)22---------0-0h(2)22---------]
[-0-0h(2)22---------0-0h(2)22---------]



[--------------------------------]
[--------------------------------]
[--------------------------------]
[-10-1010-10-1010-10-1010-9-99-9-]
[-10-1010-10-1010-10-1010-9-99-9-]
[-10-1010-10-1010-10-1010-9-99-9-]
     ****    ****    ****   ** hold last note


chorus
[--------------------------------------------]
[--------------------------------------------]
[--------------------------------------------]
[-2---/10---/2---/1---/5---/1---/5---/1----5-]
[-2---/10---/2---/1---/5---/1---/5---/1----5-]
[-2---/10---/2---/1---/5---/1---/5---/1----5-]


[---------------------------------------------------------------------------------------------------------------]
[---------------------------------------------------------------------------------------------------------------]
[---------------------------------------------------------------------------------------------------------------]
[-7-77777-2-22222222-10-10101010101010-2-2222222222222222222-7-77777777-2-222222222-10-10101010101010-2-2222222-]
[-7-77777-2-22222222-10-10101010101010-2-2222222222222222222-7-77777777-2-222222222-10-10101010101010-2-2222222-]
[-7-77777-2-22222222-10-10101010101010-2-2222222222222222222-7-77777777-2-222222222-10-10101010101010-2-2222222-]



chorus
[-----------------------------------]
[-----------------------------------]
[-----------------------------------]
[-2---/10---/2---/1---/5---/1---/5--]
[-2---/10---/2---/1---/5---/1---/5--]
[-2---/10---/2---/1---/5---/1---/5--]



I think I did ok, please rate and comment.
Tap to rate this tab
 
# A B C D E F G H I J K L M N O P Q R S T U V W X Y Z