Song name
# A B C D E F G H I J K L M N O P Q R S T U V W X Y Z

Evangelion - Rei I tab


Tabbed by: Carlos Rodriguez :P
Music by: Shiro Sagiso


Intro

e|-7-7-5-----9--7--|
B|-9-9-5-3-6-9--7--|
G|-9-9-7-3-6-10-9--|x2
D|-------0-6-------|
A|-----------------|
D|-----------------|

e|--------------7-5-|
B|--10-10-8-----7-6-|
G|---9--9-7-5-8-----|x2
D|----------7-9-----|
A|------------------|
D|------------------|

Verse

e|----12-11----10-----8------------------------------------|
B|-10-------------------------6-8--10--12-10--10--12--10---|
G|----------11----10--9--9--9------------------------------|
D|----------------------10-10-7-9--10--12-10--10-----------|
A|---------------------------------------------------------|
D|---------------------------------------------------------|

e|-----------------|
B|-----------------|
G|-8-5-------------|
D|-9-7-9-7-4-3-1---|
A|-----9-8-6-3-2---|
D|-----------------|

e|----12-11----10-----8------------------------------------|
B|-10-------------------------6-8--10--12-10--10--12--14---|
G|----------11----10--9--9--9------------------------------|
D|----------------------10-10-7-9--10--12-10--10-----------|
A|---------------------------------------------------------|
D|---------------------------------------------------------|

(INTRO)

e|-7-7-5-----9--7--|
B|-9-9-5-3-6-9--7--|
G|-9-9-7-3-6-10-9--|x2
D|-------0-6-------|
A|-----------------|
D|-----------------|

e|--------------7-5-|
B|--10-10-8-----7-6-|
G|---9--9-7-5-8-----|x2
D|----------7-9-----|
A|------------------|
D|------------------|
Tap to rate this tab
# A B C D E F G H I J K L M N O P Q R S T U V W X Y Z