Song name
# A B C D E F G H I J K L M N O P Q R S T U V W X Y Z

Evangelion - Sin From Genesis tab

Sin From Genesis, by Shiro Sagisu - Evangelion 2.22: You Can (Not) Advance

e|--------------------------------------------------------------------------|
B|--------------------------------------------------------------------------|
G|--------------------------------------------------------------------------|
D|---------------------2-0-2-5-3-2-0-2--------------------------------------|
A|-3-2-0-2-5-3-2-0-2--------------------------------------------------------|
E|-------------------0-----------------0------------------------------------|

e|--------------------------------------12-10-12-15-13-12-10----------------|
B|-----------13-12-10-12-15-13-12-10-12----------------------12-------------|
G|-------9------------------------------------------------------------------|
D|---2-9--------------------------------------------------------------------|
A|-2------------------------------------------------------------------------|
E|--------------------------------------------------------------------------|

e|--------------------------------------------------------------------------|
B|--------------------------------------------------------------------------|
G|--------------------------------------------------------9-7-9-12-10-9-7-9-|
D|-------------------2-0-2-5-3-2-0-2-10-9-7-9-12-10-9-7-9-------------------|
A|-3-2-0-2-5-3-2-0-2--------------------------------------------------------|
E|--------------------------------------------------------------------------|

e|----------------------------12-10-12-15-13-12-10-12-12---12---19----------|
B|-13-12-10-12-15-13-12-10-12-----------------------------------------------|
G|--------------------------------------------------------------------------|
D|--------------------------------------------------------------------------|
A|--------------------------------------------------------------------------|
E|-----------------------------------------------------------------0--------|

e|--------------------------------------------------------------------------|
B|--------------------------------------------------------------------------|
G|--------------------------------------------------------------------------|
D|---------------------2-0-2-5-3-2-0-2--------------------------------------|
A|-3-2-0-2-5-3-2-0-2--------------------------------------------------------|
E|-------------------0-----------------0------------------------------------|

e|--------------------------------9-7-9-12-10-9-7---------------------------|
B|-----------10-9-7-9-12-10-9-7-9-----------------9-------------------------|
G|-------9------------------------------------------------------------------|
D|---2-9--------------------------------------------------------------------|
A|-2------------------------------------------------------------------------|
E|--------------------------------------------------------------------------|

e|--------------------------------------------------------------------------|
B|--------------------------------------------------------------------------|
G|--------------------------------------------------------9-7-9-12-10-9-7-9-|
D|-------------------2-0-2-5-3-2-0-2-10-9-7-9-12-10-9-7-9-------------------|
A|-3-2-0-2-5-3-2-0-2--------------------------------------------------------|
E|--------------------------------------------------------------------------|

e|--------------------------------------------------------------------------|
B|--------------------------------------------------------------------------|
G|--------------------------------------------------------------------------|
D|-10-10-10-10-10-10-10-10-10-10--------------------------------------------|
A|--------------------------------------------------------------------------|
E|--------------------------------------------------------------------------|
Tap to rate this tab
# A B C D E F G H I J K L M N O P Q R S T U V W X Y Z