Song name
# A B C D E F G H I J K L M N O P Q R S T U V W X Y Z

Evans Blue - Caught A Lite Sneeze tab

Caught a Lite Sneeze
The traditional "track 7 cover song" from Evans Blue's second album. It's pretty easy in 
parts, but there are some pretty difficult galloping parts if you're not used to 
in muted gallops.

By Tori Amos
Covered by Evans Blue
Tabbed by damien-fr
DROP C

GAL- Gallop
.- Palm muted
x- Dead note
5*- Pinch harmonic
(5)- Harmonic

Intro (lead)
----------------------------------------------------------------------------------------|
----------------------------------------------------------------------------------------|
----------------------------------------------------------------------------------------|
--------------------3-3-3-3--------------------------5-5-5-5----------------------------|
--3-5-5-3-5-5-3-5-5---------5-5-5--3-5-5-3-5-5-3-5-5---------3-3-3----------------------|
----------------------------------------------------------------------------------------|
  . . . . . . . . . . . . . . . .  . . . . . . . . . . . . . . . .
----------------------------------------------------------------------------------------|
----------------------------------------------------------------------------------------|
----------------------------------------------------------------------------------------|
--------------------3-3-3-3--------------------------5-5-5-5----------------------------|
--3-5-5-3-5-5-3-5-5---------5-5-5--3-5-5-3-5-5-3-5-5---------3-3-3----------------------|
----------------------------------------------------------------------------------------|
  . . . . . . . . . . . . . . . .

Chorus (played as part of the intro)
----------------|
----------------|
----------------|
-0--3--8--5-----|
-0--3--8--5-----|
-0--3--8--5-----|
Figure out the strumming patter, it's not hard

The lead plays this during the chorus (Thanks to wake behind you for this bit):

|-------------------------------------|
|-------------------------------------|
|---------------------5-5-5-5---------|
|---5-7-7-5-7-7-5-7-7---------7-7-7---|
|-------------------------------------|
|-------------------------------------|

|-------------------------------------|
|-------------------------------------|
|---------------------7-7-7-7---------|
|---5-7-7-5-7-7-5-7-7---------7-7-7---|
|-------------------------------------|
|-------------------------------------|

|-------------------------------------|
|-------------------------------------|
|---------------------5-5-5-5---------|
|---5-7-7-5-7-7-5-7-7---------7-7-7---|
|-------------------------------------|
|-------------------------------------|

|-------------------------------------|
|-------------------------------------|
|-----------5-5-7-7---------5-5-7-7---|
|---5-5-7-7---------5-5-7-7-----------|
|-------------------------------------|
|-------------------------------------|

--------------------------------------------------------------------------------

verse
---------------------------|
---------------------------|
---------------------------|
--0~--00-00---0~-00-00-----|
--0~--00-00---0~-00-00-----|
--0~--00-00---0~-00-00-----|
  .   .. ..   .  .. ..

----------------------------------------------------------------------------------------|
----------------------------------------------------------------------------------------|
----------------------------------------------------------------------------------------|
--------------------3-3-3-3--------------------------5-5-5-5----------------------------|
--3-5-5-3-5-5-3-5-5---------5-5-5--3-5-5-3-5-5-3-5-5---------3-3-3----------------------|
----------------------------------------------------------------------------------------|
  . . . . . . . . . . . . . . . .  . . . . . . . . . . . . . . . .

----------------------------------------------------------------------------------------|
----------------------------------------------------------------------------------------|
----------------------------------------------------------------------------------------|
--------------------3-3-3-3--------------------------5-5-5-5----------------------------|
--3-5-5-3-5-5-3-5-5---------5-5-5--3-5-5-3-5-5-3-5-5---------3-3-3----------------------|
----------------------------------------------------------------------------------------|
  . . . . . . . . . . . . . . . .  . . . . . . . . . . . . . . . .

-----------------------------------------------|
-----------------------------------------------|
-------5---5-------------------5---5--------5~-|
--0-00-x-0-x-0-000-0-0-0--0-00-x-0-x-0-0000-x~-|
--0-00-3-0-3-0-000-0-0-0--0-00-3-0-3-0-0000-3~-|
--0-00---0---0-000-0-0-0--0-00---0---0-0000----|
  . ..   .   . ... . . .  . ..   .   . ....
               GAL                      GAL

-----------------------------------------------|
-----------------------------------------------|
-------5---5-------------------5---5--------5~-|
--0-00-x-0-x-0-000-0-0-0--0-00-x-0-x-0-0000-x~-|
--0-00-3-0-3-0-000-0-0-0--0-00-3-0-3-0-0000-3~-|
--0-00---0---0-000-0-0-0--0-00---0---0-0000----|
  . ..   .   . ... . . .  . ..   .   . ....
               GAL                      GAL
---------------------------------------------------------------------------------------
Chorus (x2)
Rhythm (Parker)
----------------|
----------------|
----------------|
-0--3--8--5-----|
-0--3--8--5-----|
-0--3--8--5-----|

Lead (Vlad)


|-------------------------------------|
|-------------------------------------|
|---------------------5-5-5-5---------|
|---5-7-7-5-7-7-5-7-7---------7-7-7---|
|-------------------------------------|
|-------------------------------------|

|-------------------------------------|
|-------------------------------------|
|---------------------7-7-7-7---------|
|---5-7-7-5-7-7-5-7-7---------7-7-7---|
|-------------------------------------|
|-------------------------------------|

|-------------------------------------|
|-------------------------------------|
|---------------------5-5-5-5---------|
|---5-7-7-5-7-7-5-7-7---------7-7-7---|
|-------------------------------------|
|-------------------------------------|

|---------------------------------------------------------------------------|
|---------------------------------------------------------------------------|
|-----------5-5-7-7---------5-5-7-7-----------------------------------------|
|---5-5-7-7---------5-5-7-7-------------------------------------------------|
|---------------------------------------------------------------------------|
|---------------------------------------------------------------------------|
----------------------------------------------------------------------------|
Verse again, but this time you go into the chorus with:

-----------------------------------------------------------------|
-----------------------------------------------------------------|
-------5---5-------------------5---5-----------------------------|
--0-00-x-0-x-0-000-0-0-0--0-00-x-0-x------------3h5--------------|
--0-00-3-0-3-0-000-0-0-0--0-00-3-0-3--3-3-3-3h5-----3~-----------|
--0-00---0---0-000-0-0-0--0-00---0-------------------------------|
  . ..   .   . ... . . .  . ..   .
               GAL
---------------------------------------------------------------------------
Chorus

------------------------------------------------------------------|
------------------------------------------------------------------|
------------------------------------------------------------------|
--------------------3-3-3-3--------------------------5*-----------|
--3-5-5-3-5-5-3-5-5---------5-5-5--3-5-5-3-5-5-3-5-5--------------|
------------------------------------------------------------------|
  . . . . . . . . . . . . . . . .  . . . . . . . . . .

-------------------------------------------------------------------------

Bridge (Right on time, you get closer...)
------------------------------------------------------------------|
------------------------------------------------------------------|
------------------------------------------------------------------|
--3~-3-33-00-000000-5-55-8-5-8-55-555-5-5-5-----------------------|
--3~-3-33-00-000000-5-55-8-5-8-55-555-5-5-5-----------------------|
--3~-3-33-00-000000-5-55-8-5-8-55-555-5-5-5-----------------------|
  .  . .. .. ......   ..   .   .. ... . . .
              GAL                 GAL

------------------------------------------------------------------|
------------------------------------------------------------------|
------------------------------------------------------------------|
--3~-3-33-00-000000-5-55-8-x-8-55-555-5-5-5-----------------------|
--3~-3-33-00-000000-5-55-8-x-8-55-555-5-5-5-----------------------|
--3~-3-33-00-000000-5-55-8-x-8-55-555-5-5-5-----------------------|
  .  . .. .. ......   ..       .. ... . . .
              GAL                 GAL
(Extremly iffy)
-----------------------------------------------------------------------------------------|
-----------------------------------------------------------------------------------------|
-----------------------------------------------------------------------------------------|
--3~-3-33-00-000000-5-55-8-5-8-5-5-555-5-5-5-5-7-77-7-7-7-7-7-1010-101010101010----------|
--3~-3-33-00-000000-5-55-8-5-8-5-5-555-5-5-5-5-7-77-7-7-7-7-7-1010-101010101010----------|
--3~-3-33-00-000000-5-55-8-5-8-5-5-555-5-5-5-5-7-77-7-7-7-7-7-1010-101010101010----------|
  .  . .. .. ......   ..   .   . . ... . . . .   .. . . . . . . .  . . . . . .
              GAL

----------------------------------------------------------------------------------------|
----------------------------------------------------------------------------------------|
----------------------------------------------------------------------------------------|
-3~-0~-5~-8~--10-10-10------------------------------------------------------------------|
-3~-0~-5~-8~--10-10-10------------------------------------------------------------------|
-3~-0~-5~-8~--10-10-10------------------------------------------------------------------|

Verse

Chorus


And you can piece together the rest.

I know this is a little sloppy but you can piece together the song with it. Comments and
are welcomed, even negative ones.
Tap to rate this tab
# A B C D E F G H I J K L M N O P Q R S T U V W X Y Z