Song name
# A B C D E F G H I J K L M N O P Q R S T U V W X Y Z

Evans Blue - Dear Lucid Our Time Is Right Now tab

-------------------------------------------------------------------------------
			     Dear Lucid, Our Time is Right Now - Evans Blue
-------------------------------------------------------------------------------
Tabbed by:damien-fr
Email:

Tuning: Drop C

This is a very fun song. There may be a couple notes missing, if so leave a comment.

Intro (x4)
e|---------------------------------------------------------------------------|
B|---------------------------------------------------------------------------|
G|---------------------------------------------------------------------------|
D|---------------------------------------------------------------------------|
A|-----3-3-----3-3-----3p1---------------------------------------------------|
E|-0h1-----0h1-----0h1-------------------------------------------------------|

Verse      (x3) The third time you let the open notes ring.
e|--------|-------------------------------------------------------------------|
B|--------|-------------------------------------------------------------------|
G|--------|-------------------------------------------------------------------|
D|-000000-|-------------------------5------1----------------------------------|
A|-000000-|--00--00-00----00--00-0--3--00--1----------------------------------|
E|-000000-|--00--00-00----00--00-0-----00-------------------------------------|
   ......    ..  .. ..    ..  .. .     ..
e|----------------------------------------------------------------------|
B|----------------------------------------------------------------------|
G|----------------------------------------------------------------------|
D|----------------------------5------1-----00--00-----------------------|
A|--00~--00-00~----00~--00-0--3--00--1-----00--00-----------------------|
E|--00~--00-00~----00~--00-0-----00--------00--00-----------------------|
    ..   .. ..     ..   .. .     ..

(Chorus) Here are the chords, the rythym is easy to pick out.
e|---------------------------------------------------------------------------|
B|---------------------------------------------------------------------------|
G|---------------------------------------------------------------------------|
D|--3------8----3---10---3---8---8-7-3---------------------------------------|
A|--3------8----3---10---3---8---8-7-3---------------------------------------|
E|--3------8----3---10---3---8---8-7-3---------------------------------------|

e|---------------------------------------------------------------------------|
B|---------------------------------------------------------------------------|
G|---------------------------------------------------------------------------|
D|--3------8----3---10---3---8----3---5---11-0-------------------------------|
A|--3------8----3---10---3---8----3---5---11-0-------------------------------|
E|--3------8----3---10---3---8----3---5---11-0-------------------------------|


Verse 2 (Guitar 1 plays the same thing as the verse verse but now the lead comes in with:)
e|---------------------13~---------------------------------------------------|
B|----------13~-----------13~------------------------------------------------|
G|---------------------------------------------------------------------------|
D|----14-15-----14-15--------------------------------------------------------|
A|---------------------------------------------------------------------------|
E|---------------------------------------------------------------------------|
And for the rest of the verse the lead plays this:
e|----------------------------------------------------------------------------|
B|----------------------------------------------------------------------------|
G|---8-10-10-10-10-10-8-10-10-10-10-10-8-10-10-10-10-10-8-10-10-10-11-10-8-10-|
D|----------------------------------------------------------------------------|
A|----------------------------------------------------------------------------|
E|----------------------------------------------------------------------------|
Then play the chorus again, and then

Intro (x4)
e|---------------------------------------------------------------------------|
B|---------------------------------------------------------------------------|
G|---------------------------------------------------------------------------|
D|---------------------------------------------------------------------------|
A|-----3-3-----3-3-----3p1---------------------------------------------------|
E|-0h1-----0h1-----0h1-------------------------------------------------------|
Four times
e|---------------------------------------------------------------------------|
B|---------------------------------------------------------------------------|
G|---------------------------------------------------------------------------|
D|---------------------------------------------------------------------------|
A|-------3~3~-------3~3~-3---------------------------------------------------|
E|-0h1p0------0h1p0--------1-0~----------------------------------------------|

Then do some pick scratches while you wait for good ol' matisyn to come in, and play the 
acoustic.
Then the rest of the song is either the chorus distorted or the intro and the second 
of the intro. Thanks anfd have fun!
Comments welcome~


| /  slide up
| \  slide down
| h  hammer-on
| p  pull-off
| ~  vibrato
| +  harmonic
| x  Mute note
===============================================================================
Tap to rate this tab
# A B C D E F G H I J K L M N O P Q R S T U V W X Y Z