Song name
# A B C D E F G H I J K L M N O P Q R S T U V W X Y Z

Evans Blue - Buried Alive tab

-------------------------------------------------------------------------------
			     Buried Alive - Evans Blue
-------------------------------------------------------------------------------
Tabbed by: Cray
Email: craydd@gmail.com

Tuning:

e|--------------------------------------------------------------------------|
B|--------------------------------------------------------------------------|
G|-------------Palm Mute all the 3's----------------------------------------|
D|----333--33--33333---333--3333--333--33333---4/5/6/88---------------------|
A|----333--33--33333---333--3333--333--33333---4/5/6/88---------------------|
D|----333--33--33333---333--3333--333--33333---4/5/6/88---------------------|

e|--------------------------------------------------------------------------|
B|--------------------------------------------------------------------------|
G|-------------Palm Mute all the 3's----------------------------------------|
D|----333--33--33333---333--3333--333--33333---4/5/6/88---------------------|
A|----333--33--33333---333--3333--333--33333---4/5/6/88---------------------|
D|----333--33--33333---333--3333--333--33333---4/5/6/88---------------------|

That's the rhythm guitar intro. Repeat it for the intro and during the verse. Somebody 
the lead guitar!!!


| /  slide up
| \  slide down
| h  hammer-on
| p  pull-off
| ~  vibrato
| +  harmonic
| x  Mute note
===============================================================================
Tap to rate this tab
# A B C D E F G H I J K L M N O P Q R S T U V W X Y Z