Song name
# A B C D E F G H I J K L M N O P Q R S T U V W X Y Z

Evans Blue - Kiss The Flag Acoustic tab

|--------------------------------------------------------------------------|
|---------------------Kiss-The-Flag-(acoustic version)---------------------|
|-------------------------Artist: Evans Blue-------------------------------|
|--------Album: The Persuit Begins When This Portrayal If Life Ends--------|
|------------------------Tabbed By: truANT111------------------------------|
|--------------------------------------------------------------------------|

Tuning: Standard

Hey everyone! Here is the tab for the acoustic version
 of the amazing Evans Blue Song Kiss The Flag. Hope You
like it and it helps you out with the song. Please Give
Me some Feedback!!! Comment if you wanna say something 
about the tab and rate on the quality of it. Thanks!

* - indicates the chord leading into the next one

Intro/verse:

|--------8---------------8----------------8-------------8----------|
|------8----8---8------8----8----8------8----8---8----8---8---8----|
|---9---------9-----10--------10------5--------5----5-------5------|
|------------------------------------------------------------------|
|------------------------------------------------------------------|
|------------------------------------------------------------------|

Chorus:

Chord Progression: C  Am  Cadd9  G6

                         *                         *
                          \                         \
|---0---0-0--0---0-0--0---0-0-0---0-0--0---0-0--0---0-0---|
|---1---1-1--1---1-1--1---1-1-1---1-1--1---1-1--1---1-1---|
|---0---0-0--0---0-0--0---0-0-2---2-2--2---2-2--2---2-2---|
|---2---2-2--2---2-2--2---2-2-2---2-2--2---2-2--2---2-2---|
|---3---3-3--3---3-3--3---3-3-0---0-0--0---0-0--0---0-0---|
|---0---0-0--0---0-0--0---0-0-0---0-0--0---0-0--0---0-0---|

                         *                         *
                          \                         \
|---0---0-0--0---0-0--0---0-0-0---0-0--0---0-0--0---0-0---|
|---3---3-3--3---3-3--3---3-3-3---3-3--3---3-3--3---3-3---|
|---0---0-0--0---0-0--0---0-0-0---0-0--0---0-0--0---0-0---|
|---2---2-2--2---2-2--2---2-2-0---0-0--0---0-0--0---0-0---|
|---3---3-3--3---3-3--3---3-3-2---2-2--2---2-2--2---2-2---|
|---0---0-0--0---0-0--0---0-0-3---3-3--3---3-3--3---3-3---|


Solo:

|---12----12-10-13---12-8---7/5-5/4-3--0-3---|
|--------------------------------------------|
|--------------------------------------------|
|--------------------------------------------|
|--------------------------------------------|
|--------------------------------------------|


Break Down Part:

Chord Progression:  C  Am  C  Am  C  Am  Cadd9  G9

Will It be only me, Will It be only me

|---0---0---|
|---1---1---|
|---0---2---|
|---2---2---|  X2   figure out the stumming for yourself
|---3---0---|
|---0---0---|


Strum the last chord just once, before it goes back into the chorus
               \
|---0---0---0---0---|
|---1---1---3---3---|
|---0---2---0---0---|
|---2---2---2---0---|
|---3---0---3---2---|
|---0---0---0---3---|



So Thats Pretty Much The Entire Song. 
Just listen to it to figure out the 
strumming patterns, slides, etc. 
Its A really good song and overall
extremely fun to play. Remember to 
rate and Comment! Please and Thank you.


Tap to rate this tab
 
# A B C D E F G H I J K L M N O P Q R S T U V W X Y Z