Song name
# A B C D E F G H I J K L M N O P Q R S T U V W X Y Z

Evans Blue - Cold But Im Still Here tab

Ok folks, ive never tabbed a song before so i hope this doesn't suck too bad. but i
the tutorial from the acutal guitarist of Evans Blue so im pretty sure this is right. the
is a bit different it's in drop C# except the A#(second string) is tuned down another 
step to G# to get an open tuning. anyway, hopefully you can figure out the strum patterns
what not and i hope you enjoy!

(verse) [Clean]
D#|-------------------------------------------------------------------------|
G#|----------------------------------------------------------0-------0--0---|
F#|--------------------------------------------------------0--0-0--0--0-----|
C#|--------------8p7----------------0-------------8p7-----8-8--8--7-7-------|
G#|-----5h7-8-10----8-----5h7-8-10--------5h7-8-10---8--10-------8-----7----|
C#|-0-0----0-0--------0-0----0-0---8--0-0----0-0-------------------------0--|

(Chorus) [Distorted]
D#|----------------------------------------------------|
G#|----------------------------------------------------|
F#|-7-10-7-5-7--10-10--7-7--5/7------------------------|
C#|-7-10-7-5-7--8--10--5-7--3/5------------------------|
G#|-5-8--5-3-5--8--8---5-5--3/5------------------------|
C#|-------------8--8---5-5--3/5------------------------|


(Bridge) Distorted
D#|--------------------------------------------|
G#|--------------------------------------------|
F#|--------------------------------------------|
C#|--------------------------------------------|
G#|--------------------------------------------|
C#|-8-8-8-0-0-0-12-12-12-0-0-0-8-8-0-0-8-8-8---|


D#|--------------------------------------------------------------------|
G#|--------------------------------------------------------------------|
F#|-10--------------10-10-7-7-----9-10--10-------------10--------------|
C#|-10-12-14-15-12--8--10-5-7--10-7/8---10-12-14-15-12-10--------------|
G#|-8--12-12-12-12--8--8--5-5--8--7/8---8--12-12-12-12-8---5-7-8-3-5---|
C#|-8--12-12-12-12--8--8--5-5--8--7/8---8--12-12-12-12-8---5-7-8-3-5---|

Verse
Chorus
verse
chorus
bridge
chorus
Tap to rate this tab
# A B C D E F G H I J K L M N O P Q R S T U V W X Y Z