Song name
# A B C D E F G H I J K L M N O P Q R S T U V W X Y Z

Evans Blue - Q tab

drop Db (drop C#) ***IGNORE THE EADGBe***

e|---------------------------|
B|---------------------------|
G|---------------------------|
D|---------------------------|
A|---------------------------|
E|---------------------------|

Intro
e|--x-x-------------------------------|
B|--x-x-------------------------------|
G|--x-x-------------------------------|
D|--x-x--10h12-12-12-12p8-8-12p8-8----|
A|--x-x--10h12-12-12-12p8-8-12p8-8----|   X3
E|--x-x--10h12-12-12-12p8-8-12p8-8----|

e|----------------------|
B|----------------------|
G|----------------------|
D|------10--10-10-10----|
A|------10--10-10-10----|   X1
E|------10--10-10-10----|

intro played 2 times

Verse
e|-------------------|
B|-------------------|
G|-------------------|
D|------0------s3--8-|
A|------0------s3--8-|
E|------0------s3--8-|
Verse played 2 Times

Prechorus
e|------------------------------------------|
B|------------------------------------------|
G|------------------------------------------|
D|------10--10-10-10-8-12--12-12--8-8--8-88-|
A|------10--10-10-10-8-12--12-12--8-8--8-88-|
E|------10--10-10-10-8-12--12-12--8-8--8-88-|

e|------------------------------------------|
B|------------------------------------------|
G|------------------------------------------|
D|------10--10-10-10-8-12--12-12--8-8-10-10-|
A|------10--10-10-10-8-12--12-12--8-8-10-10-|
E|------10--10-10-10-8-12--12-12--8-8-10-10-|

Chorus
e|-----------------------------|
B|-----------------------------|
G|-----------------------------|
D|------3----------------0-----|
A|------3----------------0-----|
E|------3----------------0-----|

e|---------------------------------------|
B|---------------------------------------|
G|---------------------------------------|
D|----10-10--8--8-------------8h10-------|
A|----10-10--8--8-------------8h10-------|
E|----10-10--8--8-------------8h10-------|
      .  .
e|-----------------------------|
B|-----------------------------|
G|-----------------------------|
D|------3----------------0-----|
A|------3----------------0-----|
E|------3----------------0-----|

e|------------------------------------|
B|------------------------------------|
G|------------------------------------|
D|----10-10--8--8-------------8-------|
A|----10-10--8--8-------------8-------|
E|----10-10--8--8-------------8-------|
      .  .
Intro played 1X
Verse played 2X
Prechorus played 1X
chorus played 1X


e|-----------------------------------------------------|
B|-----------------------------------------------------|
G|-----------------------------------------------------|
D|--10h12--10h12--10h12--10h12--10h12--10h12--10h12--8-|
A|--10h12--10h12--10h12--10h12--10h12--10h12--10h12--8-|
E|--10h12--10h12--10h12--10h12--10h12--10h12--10h12--8-|

e|---------------------------|
B|---------------------------|
G|---------------------------|
D|---------------------------|
A|--10-10-10-10--------------|
E|--10-10-10-10--------------|
     .  .  .  .

Interlude (clean)
e|---------------------------|
B|---------------------------|
G|---------------------------|
D|---10----12----8-------8---|
A|---10----12----8-------8---|
E|---10----12----8-------8---|

Chorus X2

Enjoy...Leave comments I know its not perfect and there is no lead guitar tabbed...maybe one day.
Tap to rate this tab
# A B C D E F G H I J K L M N O P Q R S T U V W X Y Z