Song name
# A B C D E F G H I J K L M N O P Q R S T U V W X Y Z

Evans Blue - Beg tab

Intro/verse
D#|---------------------------|
B#|---------------------------|
F#|---4---5---7-----4---5---7-|
C#|---------------------------|
G#|-0---0---------0---0-------|
C#|---------------------------|

D#|---------------------------|
B#|--------0------------0-----|
F#|---7------7------7-----7---|
C#|-----7------7------7-----7-|
G#|---------------------------|
C#|-5-------------5-----------|

Repeat 2 more times

Small bridge to chorus
D#|----------3--------------------------|
B#|------------0-------------0----------|
F#|------5---------5-----5------5---5---|
C#|----5---5-----5-----5---5------5-----|
G#|-------------------------------------|
C#|--3---------------3------------------|

chorus
Rhythym
D#|--------------------------------------|
B#|--------------------------------------|
F#|--------------------------------------|
C#|-10---12---2---5--3---10---12---2---5-|
G#|-10---12---2---5--3---10---12---2---5-|
C#|-10---12---2---5--3---10---12---2---5-|

Lead
D#|--------------------------------------|
B#|--------------------------------------|
F#|--------------------------------------|
C#|--10-9-10-12--9-10---10-9-10-12--9-10-|
G#|--------------------------------------| play around w/ lead part this isnt
C#|--------------------------------------| exactly how it is in song but this
                                           is general idea
D#|--------------------------------------|
B#|--------------------------------------|
F#|--------------------------------------|
C#|--10-9-10-7--10-9---10-9-10-7--10-9---|
G#|--------------------------------------|
C#|--------------------------------------|


Verse
D#|---------------------------|
B#|---------------------------|
F#|---4---5---7-----4---5---7-|
C#|---------------------------|
G#|-0---0---------0---0-------|
C#|---------------------------|

D#|---------------------------|
B#|--------0------------0-----|
F#|---7------7------7-----7---|
C#|-----7------7------7-----7-|
G#|---------------------------|
C#|-5-------------5-----------|

Repeat 2 more times

Small bridge to chorus
D#|----------3--------------------------|
B#|------------0-------------0----------|
F#|------5---------5-----5------5---5---|
C#|----5---5-----5-----5---5------5-----|
G#|-------------------------------------|
C#|--3---------------3------------------|

chorus
D#|--------------------------------------|
B#|--------------------------------------|
F#|--------------------------------------|
C#|-10---12---2---5--3---10---12---2---5-|
G#|-10---12---2---5--3---10---12---2---5-|
C#|-10---12---2---5--3---10---12---2---5-|

D#|-------|
B#|-------|
F#|-------|
C#|-10-10-|
G#|-10-10-|
C#|-10-10-|
    PM PM

chorus
D#|----------------------------------------|
B#|----------------------------------------|
F#|----------------------------------------|
C#|-10---12---2---5--3---10---12---2---5--3|
G#|-10---12---2---5--3---10---12---2---5--3|
C#|-10---12---2---5--3---10---12---2---5--3|


D#|----------------------------------------|
B#|----------------------------------------|
F#|----------------------------------------|
C#|-10---12---2---5--3---10---12---2---5--3|
G#|-10---12---2---5--3---10---12---2---5--3|
C#|-10---12---2---5--3---10---12---2---5--3|


D#|---------------|
B#|---------------|
F#|---------------|
C#|-10---12---2---|
G#|-10---12---2---|
C#|-10---12---2---|

Outro
D#|-----------------------------------|
B#|-----------------------------------|
F#|-----------------------------------|
C#|-10---12---2---5--3---10---12---2--|
G#|-10---12---2---5--3---10---12---2--|
C#|-10---12---2---5--3---10---12---2--|

A lot of this tab was from a different version..props...however I made some changes.
Tap to rate this tab
# A B C D E F G H I J K L M N O P Q R S T U V W X Y Z