Song name
# A B C D E F G H I J K L M N O P Q R S T U V W X Y Z

Evans Blue - Eclipsed tab

There are NO other good tabs for this song so i took it upon myself to make one..
Nothing was even close.
ratings + comments appreciated.
Enjoy!

Tuning: drop C# (C# G# C# F# A# D#)

Intro
D#|---------0----------------0-----------------|
A#|--------------------------------------------|
F#|-----9-----9---9------9----9---9------------|
C#|---7---7-----7------7---7----7--------------|
G#|-0----------------0-------------------------|
C#|--------------------------------------------|

D#|---------0----------------0------------------|
A#|---------------------------------------------|
F#|-----10----10---10-----8----8---9------------|
C#|---7----7-----7------7---7----7--------------|
G#|-0-----------------0-------------------------|
C#|---------------------------------------------| 

Play intro X2

Verse - INTRO RIFF CONTINUES THROUGHOUT*****************

This is the lead verse riff - reverb, little flange i dont know exact effect
------listen and play along for correct timing------

1st measure verse - lead
D#|--------------------------------|
A#|---13-------------12------------|
F#|---------------14---------------|
C#|------14-15-14------------------|
G#|--------------------------------|
C#|--------------------------------|
"we love our...Tragedies" (the first note [13 on A# string] starts on "..Tragedies")

2nd measure verse
D#|--------------------------------|
A#|---13---------------------------|
F#|---------------14---------------|
C#|------14-15-14------------------|
G#|--------------------------------|
C#|--------------------------------|

3rd measure verse
D#|--------------------------------|
A#|---13-------------12------------|
F#|---------------14---------------|
C#|------14-15-14------------------|
G#|--------------------------------|
C#|--------------------------------|

4th measure verse
D#|--------------------------------|
A#|---13---------------------------|
F#|---------------14---------------|
C#|------14-15-14------------------|
G#|--------------------------------|
C#|--------------------------------|

Prechorus
No Rhythm guitar, only lead
D#|--------------------------------|
A#|--------------------------------|
F#|----------------14--------------|
C#|----14-14-15-14----14-15-14-----|
G#|--------------------------------|
C#|--------------------------------|


Chorus
D#|------------------------------------------------------------------|
A#|------------------------------------------------------------------|
F#|------------------------------------------------------------------|
C#|-7-7-7-7----10-10-10-10----5-5-5-5-5-5----8-----------------------|
G#|-7-7-7-7----10-10-10-10----5-5-5-5-5-5----8-----------------------|
C#|-7-7-7-7----10-10-10-10----5-5-5-5-5-5----8-----------------------|
             "When our..."          "..Know  me.."

D#|-----------------------------------|
A#|-----------------------------------|
F#|-7h8-7h8-7--7-7-7------------------|
C#|-------------------8-8-8-8--7-7-7--|
G#|-----------------------------------|
C#|-----------------------------------| (x2) (within the bar only directly above)

D#|------------------------------------------------------------------|
A#|------------------------------------------------------------------|
F#|------------------------------------------------------------------|
C#|-7-7-7-7----10-10-10-10----5-5-5-5-5-5----8-----------------------|
G#|-7-7-7-7----10-10-10-10----5-5-5-5-5-5----8-----------------------|
C#|-7-7-7-7----10-10-10-10----5-5-5-5-5-5----8-----------------------|
 "..Then"
D#|-----------------------------------|
A#|-----------------------------------|
F#|-7h8-7h8-7--7-7-7------------------|
C#|-------------------8-8-8-8--7-7-7--|\      / \
G#|-----------------------------------| \      |
C#|-----------------------------------|  \     |
      					  These correspond to ONLY bar 
D#|-----------------------------------| /   directly above.
A#|-----------------------------------|/
F#|-7h8-7h8-7\5-5-5-5\3-3-3-3\2-2-----|
C#|-----------------------------------|
G#|-----------------------------------|
C#|-----------------------------------| 

D#|------------------------------------------------------------------|
A#|------------------------------------------------------------------|
F#|------------------------------------------------------------------|
C#|-7-7-7-7----10-10-10-10----5-5-5-5-5-5----8-----------------------|
G#|-7-7-7-7----10-10-10-10----5-5-5-5-5-5----8-----------------------|
C#|-7-7-7-7----10-10-10-10----5-5-5-5-5-5----8-----------------------|

D#|-----------------------------------|
A#|-----------------------------------|
F#|-7h8-7h8-7--7-7-7------------------|
C#|-------------------8-8-8-8--7-7-7--|
G#|-----------------------------------|
C#|-----------------------------------| (x2) (within the bar only directly above)

D#|---------------------------------------------------------------|
A#|---------------------------------------------------------------|
F#|---------------------------------------------------------------|
C#|-7-7-7-7----3-3-3-3-----5-5-5-5-5-5----8-----------------------|
G#|-7-7-7-7----3-3-3-3-----5-5-5-5-5-5----8-----------------------|
C#|-7-7-7-7----3-3-3-3-----5-5-5-5-5-5----8-----------------------|

D#|-----------------------------------|
A#|-----------------------------------|
F#|-7h8-7h8-7--7-7-7------------------|
C#|-------------------8-8-8-8--7-7-7--|\      / \
G#|-----------------------------------| \      |
C#|-----------------------------------|  \     |
      					  These correspond to ONLY bar 
D#|-----------------------------------| /   directly above.
A#|-----------------------------------|/
F#|-7h8-7h8-7\5-5-5-5\3-3-3-3\2-2-----|
C#|-----------------------------------|
G#|-----------------------------------|
C#|-----------------------------------| 



Pre-verse (intro riff continues throughout on rhythm guitar)
D#|--------------------------------|
A#|---13-------------12------------|
F#|---------------14---------------|
C#|------14-15-14------------------|
G#|--------------------------------|
C#|--------------------------------|

D#|--------------------------------|
A#|---13---------------------------|
F#|---------------14---------------|
C#|------14-15-14------------------|
G#|--------------------------------|
C#|--------------------------------|

Verse - INTRO RIFF CONTINUES THROUGHOUT*****************
Only thing that changes is lead guitar.

1st measure verse
D#|--------------------------------|
A#|---13-------------12------------|
F#|---------------14---------------|
C#|------14-15-14------------------|
G#|--------------------------------|
C#|--------------------------------|

2nd measure verse
D#|--------------------------------|
A#|---13-------15-12---------------|
F#|--------------------------------|
C#|------14-15---------------------|
G#|--------------------------------|
C#|--------------------------------|

3rd measure verse
D#|--------------------------------|
A#|---13-------------12------------|
F#|---------------14---------------|
C#|------14-15-14------------------|
G#|--------------------------------|
C#|--------------------------------|

4th measure verse
D#|------------12------------------|
A#|---13----------12---------------|
F#|--------------------------------|
C#|------14-15---------------------|
G#|--------------------------------|
C#|--------------------------------|

Prechorus
No Rhythm guitar, only lead
D#|--------------------------------|
A#|--------------------------------|
F#|----------------14--------------|
C#|----14-14-15-14----14-15-14-----|
G#|--------------------------------|
C#|--------------------------------|


-Repeat Chorus-



Pre-Bridge
D#|------------------------------------------------------|
A#|-----13-12--------13-12----------12-13--15----13-12---|
F#|--12-------12--14-------12----12-----------12---------|
C#|---------------------------14-------------------------|
G#|------------------------------------------------------|
C#|------------------------------------------------------| (x2)

Lead guitar (very light in background)
D#|--------------------------------|
A#|----------------12------15------|
F#|----14----------14------14------|
C#|----14--------------------------|
G#|--------------------------------|
C#|--------------------------------| (x2)




Main Bridge (mainly tom drums)
Lead guitar
D#|--------------------------------|
A#|----------------12------15------|
F#|----14----------14------14------|
C#|----14--------------------------|
G#|--------------------------------|
C#|--------------------------------| (x4)

Rhythm
D#|------------------------|
A#|------------------------|
F#|----9-------------------|
C#|----7-------------------|
G#|------------------------|
C#|------------------------|
 "....Everything you want..."

D#|------------------------|
A#|------------------------|
F#|----5-------------------|
C#|----3-------------------|
G#|------------------------|
C#|------------------------|
"....want it.."

D#|------------------------|
A#|------------------------|
F#|----7-------------------|
C#|----5-------------------|
G#|------------------------|
C#|------------------------|

      Rhythm repeats X4

Break
Rhythm
D#|-------------------------------------------|
A#|-------------------------------------------|
F#|-------------------------------------------|
C#|-7-7-7-7-7-7----3-3-3-3-3-3-----5-5-5-5----|
G#|-7-7-7-7-7-7----3-3-3-3-3-3-----5-5-5-5----|
C#|-7-7-7-7-7-7----3-3-3-3-3-3-----5-5-5-5----| (x4)
"Vote for me!..."

Lead
D#|--------------------------------------------------|
A#|-----13-12-------13-12--------13-12---------------|
F#|--12-------12-14-------12-14--------12-14---------|
C#|--------------------------------------------------|
G#|--------------------------------------------------|
C#|--------------------------------------------------| (x4)

Repeat chorus - Theres a little fill in there its not hard to play
     i just dont know how to go about tabbing it.

In the last measure of the chorus (right after the fill thing)
there is a third guitar (i bet most people wouldnt even be able
to hear it)
that goes like this:

D#|---15----15-15----------------------|
A#|-----------------13-12-13-----------|
F#|------------------------------------|
C#|------------------------------------|
G#|------------------------------------| (x4)
C#|------------------------------------|

Outro
Guitar 1
D#|---------0--------|
A#|------------------|
F#|-----9-----9---9--|
C#|---7---7-----7----|
G#|-0----------------|
C#|------------------| (x7)

Guitar 1
D#|-----0-------0------|
A#|--------------------|
F#|-------5--------7---|
C#|---3-------5--------|
G#|-0-------0----------|
C#|--------------------| 

Guitar 1 ends on:
D#|-----------|
A#|-----------|
F#|---9-------|
C#|---7-------|
G#|---0-------|
C#|-----------|

Guitar 2 (the one with flange/reverb) ends with:
D#|---------------|
A#|---------10----|
F#|-------9-------|
C#|-----7---------|
G#|---0-----------|
C#|---------------|






Tap to rate this tab
# A B C D E F G H I J K L M N O P Q R S T U V W X Y Z