Song name
# A B C D E F G H I J K L M N O P Q R S T U V W X Y Z

Evans Blue - Look tab

b - bend
r - release bend
~ - let ring

Intro
D|------------------------------|
A|------------------------------|
F|-----6-6-6-6------------------|
C|------------6-6-6-6-7-7-7-----|
G|------------------------------|
C|-4----------------------7-----|

D|------------------------------|
A|------------------------------|
F|-----6-6-6-6------------------|
C|------------6-6-6-6-7-7-7-----|
G|------------------------------|
C|-0----------------------------|
					 (X4)


Prechorus
D|-----------------------------|
A|-----------------------------|
F|-----9-9-9-9-6-6-6-6-7-7-7---|
C|---------------------------6-|
G|-7---------------------------|
C|-----------------------------|

D|------------------------------|
A|------------------------------|
F|-----6-6-6-6------------------|
C|------------6-6-6-6-7-7-7-----|
G|------------------------------|
C|-0----------------------------|


Chorus
D|--------------------|
A|--------------------|
F|--------------------|
C|----7---0---4---0---|
G|----7---0---4---0---|
C|----7---0---4---0---| (X2)

Repeat Intro (X4)
Repeat Prechorus
Repeat chorus (X2)

Bridge
Guitar 1
D|--------------------|
A|--------------------|
F|--------------------|
C|----4-~-------------|
G|----4-~-------------| 
C|----4-~-------------|  Let Ring

Guitar 2
D|------------------------------|
A|------------------------------|
F|-----6-6-6-6------------------|
C|------------6-6-6-6b7r6-------| listen for timing on this part
G|------------------------------|
C|------------------------------|


Guitar 1
D|--------------------|
A|--------------------|
F|--------------------|
C|----0---------------|
G|----0---------------| 
C|----0---------------|

Guitar 2
D|---------------------------------------|
A|---------------------------------------|
F|-----6-------9-------6--------9--------|
C|-------7-6-7---7-6-7---7-6-7----7-6~---|
G|---------------------------------------|
C|---------------------------------------|

Guitar 1
D|--------------------|
A|--------------------|
F|--------------------|
C|----4---------------|
G|----4---------------| 
C|----4---------------|

Guitar 2
D|---------------------------------------|
A|---------------------------------------|
F|-----6-------9-------6--------9--------|
C|-------7-6-7---7-6-7---7-6-7----7-6-7--|
G|---------------------------------------|
C|---------------------------------------|

Guitar 1
D|--------------------|
A|--------------------|
F|--------------------|
C|----0---------------|
G|----0---------------| 
C|----0---------------|

Guitar 2
D|---------------------------------------|
A|---------------------------------------|
F|-----6-------9-------6--------9--------|
C|-------7-6-7---7-6-7---7-6-7----7-6~---|
G|---------------------------------------|
C|---------------------------------------|


D|------------------------------|
A|------------------------------|
F|------------------------------|
C|----7---0---4---0-0-0-0-0-0---|
G|----7---0---4---0-0-0-0-0-0---|
C|----7---0---4---0-0-0-0-0-0---|
                  . . . . . .
"And we'll go on and on..."

Rest of the song is similar to chorus structure and is easy to figure out..enjoy!





Tap to rate this tab
 
# A B C D E F G H I J K L M N O P Q R S T U V W X Y Z