Song name
# A B C D E F G H I J K L M N O P Q R S T U V W X Y Z

Evans Blue - Tease tab

The Tease - by Evans Blue

This is my UPDATED version of the TAB by: The Universe101
I've re-posted with my edits so that the other tab is also there for reference. Thanks!

Tuning:Drop-D and half a step.





INTRO:(figure out the pattern, it really isn't hard!)

eb|--x-------x-------x-------x-------x---------------|    (x4)
Bb|--x-------x-------x-------x-------x---------------|
Gb|--4---/---6---/---7---/---9---/---11--------------|
Db|--x-------x-------x-------x-------x---------------|
Ab|--2-------4-------5-------7-------9---------------|
Db|--x-------x-------x-------x-------x---------------|

Updated Chorus[s] 
(Strumming is REALLY easy, I strum down on each chord five times.)
eb|--x---------x---------x-----------x--------| 
Bb|--x---------x---------x-----------x--------|
Gb|--11-(x5)-\-7-(x5)-/--2--(x5)--\--6--(x5)--|
Db|--9---------5---------0-----------4--------|
Ab|--9---------5---------0-----------4--------|
Db|--9---------5---------0-----------4--------|

When "Be my massacre/You are the massacre etc..." 
eb|--x--------x---------x--------x-------------------|
Bb|-12--------8---------x--------x-------------------|
Gb|-11-(x5)-\-7-(x5)-/--2-(x5)-\-6--(x5)-------------|
Db|--9--------5---------0--------4-------------------|
Ab|--9--------5---------0--------4-------------------|
Db|--9--------5---------0--------4-------------------|


Verse[s] (picking each string... you have to listen to get proper rythem!!
but it is something in this area with a palm mute on each note.)
eb|---------------------------------------------------------] 
Bb|---------------------------------------------------------] 
Gb|--------4--------4-------4--------7-------7--------7-----]:x 4
Db|------4--------4-------4--------7-------7--------7-------] 
Ab|--2-2------2-2-----2-2------5-5-----5-5------5-5---------] 
Db|---------------------------------------------------------] 


eb|---------------] 
Bb|-6--6--6--4----] 
Gb|-4--4--4--2----]
Db|-4--4--4--2----] 
Ab|-4--4--4--2----] 
Db|---------------] 


Updated Chorus[s] 
(Strumming is REALLY easy, I strum down on each chord five times.)
eb|--x---------x---------x-----------x--------| 
Bb|--x---------x---------x-----------x--------|
Gb|--11-(x5)-\-7-(x5)-/--2--(x5)--\--6--(x5)--|
Db|--9---------5---------0-----------4--------|
Ab|--9---------5---------0-----------4--------|
Db|--9---------5---------0-----------4--------|

When "Be my massacre/You are the massacre etc..." 
eb|--x--------x---------x--------x-------------------|
Bb|-12--------8---------x--------x-------------------|
Gb|-11-(x5)-\-7-(x5)-/--2-(x5)-\-6--(x5)-------------|
Db|--9--------5---------0--------4-------------------|
Ab|--9--------5---------0--------4-------------------|
Db|--9--------5---------0--------4-------------------|


Bridge Section
eb|-------------------------------------] 
Bb|-------------------------------------] 
Gb|--h---------h---------h--------------]
Db|-2-4-4-4---2-4-4-4---2-4-4--0-0-0----] : x repeats (listen)
Ab|-2-4-4-4---2-4-4-4---2-4-4--0-0-0----] 
Db|-2-4-4-4---2-4-4-4---2-4-4--0-0-0----] 

(semi clean strum- basically roll off your guitar volume a little for cleaner sound)
eb|---------------] 
Bb|---------------] 
Gb|-4--7--2--6----]
Db|-2--5--0--4----] : x repeats (listen)
Ab|-2--5--0--4----]
Db|-------0--4----]

(slowly builds back to full distortion - turn vol pot back up slowly)
eb|----------------] 
Bb|----------------] 
Gb|--6--6--6-------]
Db|--4--4--4-------] : x repeats (listen)
Ab|--4--4--4-------]
Db|--4--4--4-------]
Tap to rate this tab
# A B C D E F G H I J K L M N O P Q R S T U V W X Y Z