Song name
# A B C D E F G H I J K L M N O P Q R S T U V W X Y Z

Evans Blue - Over Stop And Say You Love Me tab

Intro
|--------------------------------------------------------------------------|
|--------------------------------------------------------------------------|
|--------------------------------------------------------------------------|
|---------7-----------7---5---8\7-----x4-----------------------------------|
|----3/5---------3/5-------------------------------------------------------|
|--0-----------0--------0---0----------------------------------------------|

Pre-Chorus

|---------1-----0-----0-------------   |---------5-------------------|
|-----------------------------------   |---------------5-----5-------|
|---3-------3-----3-----3---3-------   |---7-------7-----7-----7---7-|
|-----3-------3-----3-----3-------x2   |-----7-------7-----7-----7---|x2
|--1----1---------------------------   |--5----5---------------------|
|-----------------------------------   |-----------------------------|

Chorus-Listen to song for rhythm         Interlude
|------------------                    |------------------------------------|
|------------------                    |------------------------------------|
|------------------                    |------------------------------------|
|---0-------8------                    |-000-222-333-555-77-1010------------|
|---0-------8------                    |-000-222-333-555-77-1010------------|
|---0-------8------                    |-000-222-333-555-77-1010------------|

After playin interlude third time end like this.
|------------------------------------|
|------------------------------------|
|------------------------------------|
|-0-0-2-2-3-3-5-5-7------------------|
|-0-0-2-2-3-3-5-5-7------------------|
|-0-0-2-2-3-3-5-5-7------------------|

Outro-Listen for rhythm
|------------------------------------|
|------------------------------------|
|------------------------------------|
|-8------0---------------------------|
|-8------0---------------------------|
|-8------0---------------------------|
Tap to rate this tab
 
# A B C D E F G H I J K L M N O P Q R S T U V W X Y Z