Song name
# A B C D E F G H I J K L M N O P Q R S T U V W X Y Z

Evans Blue - Cold But Im Still Here tab

-----------------------------------------------------------------------------
                    "Cold But I'm Still Here" by Evans Blue
-----------------------------------------------------------------------------
Tabbed by: thewakebehindyou
Email: thewakebehindyou@excite.com

Tuning: C# G# C# F# A# D#

Hit Single "Cold" from Evans Blue's debut album
"The Melody and the Energetic Nature of Volume"

Feedback is appreciated

*Credit to PingPong1608 for the lead and rhythm intros
============================================================================

|=-=-=-=-=-=-=|
|Parker Lauzon|
|Rhythm Guitar|
|=-=-=-=-=-=-=|

Intro/Verse I 
 |x3
 |   Q.E E E E E E E E E  E E Q
e|-------------------------------|
B|-------------------------------|
G|-------------------------------|
D|------------------------8-7----|
A|-------5-7---7-8---8-10-----8--|
E|---0-0-----0-----0-------------|

     Q.E E E E E E E E E  Q Q                             
e|-------------------------------|
B|-------------------------------|
G|-------------------------------|
D|--------------------------0----|
A|-------5-7---7-8---8-10--------|
E|---0-0-----0-----0------8------|

     Q.E E E E E E E E E  E E Q    E  E  E E E E  E  E  E E E E E  E E  E
e|------------------------------------------------------------------------|
B|------------------------------------------------------------------------|
G|------------------------------------------------------------------------|
D|------------------------8-7---------8----8-7----8-------7---7-----------|
A|-------5-7---7-8---8-10-----8----10---10-----10---10--8---8---10-8-7----|
E|---0-0-----0-----0---------------------------------------------------10-|

Chorus 
 |x4
 |   Q.  E   Q   Q   E   E   E   E   E   Q  Q. E  Q  Q. E  E  E  E  E  E
e|-------------------------------------------------------------------------|
B|-------------------------------------------------------------------------|
G|-------------------------------------------------------------------------|
D|--12--12--15--12--12--12--10--10--12--12--8--8--8--5--5--5--3--3--5--5---|
A|--12--12--15--12--12--12--10--10--12--12--8--8--8--5--5--5--3--3--5--5---|
E|--12--12--15--12--12--12--10--10--12--12--8--8--8--5--5--5--3--3--5--5---|

Verse II 
 |x2 
 |   Q.E E E E E E E E E  E E Q
e|-------------------------------|
B|-------------------------------|
G|-------------------------------|
D|------------------------8-7----|
A|-------5-7---7-8---8-10-----8--|
E|---0-0-----0-----0-------------|

     Q.E E E E E E E E E  Q Q 
e|-------------------------------|
B|-------------------------------|
G|-------------------------------|
D|--------------------------0----|
A|-------5-7---7-8---8-10--------|
E|---0-0-----0-----0------8------|

     Q.E E E E E E E E E  E E Q    E  E  E E E E  E  E  E E E E E  E E  E
e|------------------------------------------------------------------------|
B|------------------------------------------------------------------------|
G|------------------------------------------------------------------------|
D|------------------------8-7---------8----8-7----8-------7---7-----------|
A|-------5-7---7-8---8-10-----8----10---10-----10---10--8---8---10-8-7----|
E|---0-0-----0-----0---------------------------------------------------10-|

Chorus 
 |x4
 |    Q.  E   Q   Q   E   E   E   E   E   Q  Q. E  Q  Q. E  E  E  E  E  E
e|--------------------------------------------------------------------------|
B|--------------------------------------------------------------------------|
G|--------------------------------------------------------------------------|
D|---12--12--15--12--12--12--10--10--12--12--8--8--8--5--5--5--3--3--5--5---|
A|---12--12--15--12--12--12--10--10--12--12--8--8--8--5--5--5--3--3--5--5---|
E|---12--12--15--12--12--12--10--10--12--12--8--8--8--5--5--5--3--3--5--5---|

Bridge
 |X4 E  E  E  E  E  E   E   E   E  E  E  E  E  E  E  E
e|-----------------------------------------------------------|
B|-----------------------------------------------------------|
G|-----------------------------------------------------------|
D|---8--8--8--0--0--0--12--12--12--0--0--0--8--8--0--0-------|
A|---8--8--8--0--0--0--12--12--12--0--0--0--8--8--0--0-------|
E|---8--8--8--0--0--0--12--12--12--0--0--0--8--8--0--0-------|

     Q.  E  E  E  E  Q  E  E  E  E  E  E  E
e|-----------------------------------------------------------|
B|-----------------------------------------------------------|
G|---10--10-10-10-10-10-10-10-10-10-10-10-10-----------------|
D|---10--10-10-10-10-10-10-10-10-10-10-10-10-----------------|
A|---8---8--8--8--8--8--8--8--8--8--8--8--8------------------|
E|---8---8--8--8--8--8--8--8--8--8--8--8--8------------------|

     Q  E  E  E  E  E  E  E  E   E  E  E  E  E  E                                           
e|-----------------------------------------------------------|
B|-----------------------------------------------------------|
G|---7--7--7--9--9--9--10-10-10--9--9--9--7--7--7------------|
D|---7--7--7--9--9--9--10-10-10--9--9--9--7--7--7------------|
A|---5--5--5--7--7--7--8--8--8---7--7--7--5--5--5------------|
E|---0-------------------------------------------------------|

     Q.  E  E  E  E  Q  E  E  E  E  E  E  E
e|-----------------------------------------------------------|
B|-----------------------------------------------------------|
G|---10--10-10-10-10-10-10-10-10-10-10-10-10-----------------|
D|---10--10-10-10-10-10-10-10-10-10-10-10-10-----------------|
A|---8---8--8--8--8--8--8--8--8--8--8--8--8------------------|
E|---8---8--8--8--8--8--8--8--8--8--8--8--8------------------|

     Q  E  E  E  Q  E  E  E  E  E  E  E 
e|-----------------------------------------------------------|
B|-----------------------------------------------------------|
G|-----------------------------------------------------------|
D|---5--5--5--0--8--8--8--8--8--7--7--0----------------------|
A|---5--5--5--0--8--8--8--8--8--7--7--0----------------------|
E|---5--5--5--0--8--8--8--8--8--7--7--0----------------------|

    Q.  E  E  E  E  Q  E  E  E  E  E  E  E
e|-----------------------------------------------------------|
B|-----------------------------------------------------------|
G|---10--10-10-10-10-10-10-10-10-10-10-10-10-----------------|
D|---10--10-10-10-10-10-10-10-10-10-10-10-10-----------------|
A|---8---8--8--8--8--8--8--8--8--8--8--8--8------------------|
E|---8---8--8--8--8--8--8--8--8--8--8--8--8------------------|

     Q  E  E  E  E  E  E  E  E   E  E  E  E  E  E                                           
e|-----------------------------------------------------------|
B|-----------------------------------------------------------|
G|------7--7--9--9--9--10-10-10--9--9--9--7--7--7------------|
D|---0--7--7--9--9--9--10-10-10--9--9--9--7--7--7------------|
A|---0--5--5--7--7--7--8--8--8---7--7--7--5--5--5------------|
E|---0-------------------------------------------------------|

    Q.  E  E  E  E  Q  E  E  E  E  E  E  E
e|-----------------------------------------------------------|
B|-----------------------------------------------------------|
G|---10--10-10-10-10-10-10-10-10-10-10-10-10-----------------|
D|---10--10-10-10-10-10-10-10-10-10-10-10-10-----------------|
A|---8---8--8--8--8--8--8--8--8--8--8--8--8------------------|
E|---8---8--8--8--8--8--8--8--8--8--8--8--8------------------|

     E  E  E  E  E  E  E  E  E  E  E  E  E  E  E  E
e|-----------------------------------------------------------|
B|-----------------------------------------------------------|
G|-----------------------------------------------------------|
D|---5--5--5--7--7--7--8--8--8--3--3--3--3--5--5--5----------|
A|---5--5--5--7--7--7--8--8--8--3--3--3--3--5--5--5----------|
E|---5--5--5--7--7--7--8--8--8--3--3--3--3--5--5--5----------|

Chorus / Outro
 |x8
 |    Q.  E   Q   Q   E   E   E   E   E   Q  Q. E  Q  Q. E  E  E  E  E  E |END|
e|------------------------------------------------------------------------|---|
B|------------------------------------------------------------------------|---|
G|------------------------------------------------------------------------|---|
D|---12--12--15--12--12--12--10--10--12--12--8--8--8--5--5--5--3--3--5--5-|-0-|
A|---12--12--15--12--12--12--10--10--12--12--8--8--8--5--5--5--3--3--5--5-|-0-|
E|---12--12--15--12--12--12--10--10--12--12--8--8--8--5--5--5--3--3--5--5-|-0-|


=============================================================================

|=-=-=-=-=-=-=-=|
|Vlad Tanaskovic|
|  Lead Guitar  |
|=-=-=-=-=-=-=-=|
 
Intro / Verse I
 |Heavy Distortion
 |  H.  H.   Q.   Q    Q.   Q.   H.   W.   Q    Q    Q.   H.   W
e|----------------24---22---19---24---19---17---15---24---22---17-------|
B|----------------------------------------------------------------------|
G|------17--------------------------------------------------------------|
D|-----------15---------------------------------------------------------|
A|----------------------------------------------------------------------|
E|----------------------------------------------------------------------|

     Q.   H    W.   Q.   H    Q    Q.   H.
e|---24---22---19---24---22---------------------------------------------|
B|----------------------------------------------------------------------|
G|----------------------------19---17-----------------------------------|
D|--------------------------------------19------------------------------|
A|----------------------------------------------------------------------|
E|----------------------------------------------------------------------|

Chorus
 |X3 E  E  E  E  E  E  H    E  E  E  E  E  E  E
e|-------------------------------------------------|
B|------13------------------13---------------------|
G|---14----14-12---------------14-12----12-12-12---|
D|---------------15-14-12------------15------------|
A|-------------------------------------------------|
E|-------------------------------------------------|

     Q  E  Q  E  Q.  E  E  E  E  
e|---------13----13-----13-15-13-------------------|
B|-------------------------------------------------|
G|---14-14----14-----14----------------------------|
D|-------------------------------------------------|
A|-------------------------------------------------|
E|-------------------------------------------------|

 |X3 E  E  E  E  E  E  H    E  E  E  E  E  E  E
e|-------------------------------------------------|
B|------13------------------13---------------------|
G|---14----14-12---------------14-12----12-12-12---|
D|---------------15-14-12------------15------------|
A|-------------------------------------------------|
E|-------------------------------------------------|

     Q  E  Q  E  Q.  E  E  E  E  
e|---------13----13-----13-15-13-------------------|
B|-------------------------------------------------|
G|---14-14----14-----14----------------------------|
D|-------------------------------------------------|
A|-------------------------------------------------|
E|-------------------------------------------------|

Verse II
    H.   Q    W    W    W    W    H    H    H.   Q.   Q    Q    Q 
e|--24---22---19---24--------17--------------------------------------|
B|---------------------------17-----------------------19---17---17---|
G|---------------------------17---14---12---17---19------------------|
D|----------------------17-------------------------------------------|
A|-------------------------------------------------------------------|
E|-------------------------------------------------------------------|

Chorus
 |X3 E  E  E  E  E  E  H    E  E  E  E  E  E  E
e|-------------------------------------------------|
B|------13------------------13---------------------|
G|---14----14-12---------------14-12----12-12-12---|
D|---------------15-14-12------------15------------|
A|-------------------------------------------------|
E|-------------------------------------------------|

     Q  E  Q  E  Q.  E  E  E  E  
e|---------13----13-----13-15-13-------------------|
B|-------------------------------------------------|
G|---14-14----14-----14----------------------------|
D|-------------------------------------------------|
A|-------------------------------------------------|
E|-------------------------------------------------|

 |X3 E  E  E  E  E  E  H    E  E  E  E  E  E  E
e|-------------------------------------------------|
B|------13------------------13---------------------|
G|---14----14-12---------------14-12----12-12-12---|
D|---------------15-14-12------------15------------|
A|-------------------------------------------------|
E|-------------------------------------------------|

     Q  E  Q  E  Q.  E  E  E  E  
e|---------13----13-----13-15-13-------------------|
B|-------------------------------------------------|
G|---14-14----14-----14----------------------------|
D|-------------------------------------------------|
A|-------------------------------------------------|
E|-------------------------------------------------|

Bridge
 |x4
 |   E  E  E  E  E  E   E   E   E  E  E  E  E  E  E  E
e|--------------------------------------------------------------|
B|--------------------------------------------------------------|
G|--------------------------------------------------------------|
D|---8--8--8--0--0--0--12--12--12--0--0--0--8--8--0--0----------|
A|---8--8--8--0--0--0--12--12--12--0--0--0--8--8--0--0----------|
E|---8--8--8--0--0--0--12--12--12--0--0--0--8--8--0--0----------|

"You're so endearing..."
 |X2 T   T   T   T   T   T   T   T   T   T   T   T
e|---17--15--17--15--17--15--20--17--20--17--20--17----------|
B|-----------------------------------------------------------|
G|-----------------------------------------------------------|
D|-----------------------------------------------------------|
A|-----------------------------------------------------------|
E|-----------------------------------------------------------|
     T   T   T   T   T   T   T   T   T   T
e|---17--15--17--15--17--15----------------------------------|
B|---------------------------18--18--17--17------------------|
G|-----------------------------------------------------------|
D|-----------------------------------------------------------|
A|-----------------------------------------------------------|
E|-----------------------------------------------------------|

Chorus
 |X3 E  E  E  E  E  E  H    E  E  E  E  E  E  E
e|-------------------------------------------------|
B|------13------------------13---------------------|
G|---14----14-12---------------14-12----12-12-12---|
D|---------------15-14-12------------15------------|
A|-------------------------------------------------|
E|-------------------------------------------------|

     Q  E  Q  E  Q.  E  E  E  E  
e|---------13----13-----13-15-13-------------------|
B|-------------------------------------------------|
G|---14-14----14-----14----------------------------|
D|-------------------------------------------------|
A|-------------------------------------------------|
E|-------------------------------------------------|

 |X3 E  E  E  E  E  E  H    E  E  E  E  E  E  E
e|-------------------------------------------------|
B|------13------------------13---------------------|
G|---14----14-12---------------14-12----12-12-12---|
D|---------------15-14-12------------15------------|
A|-------------------------------------------------|
E|-------------------------------------------------|

     Q  E  Q  E  Q.  E  E  E  E  
e|---------13----13-----13-15-13-------------------|
B|-------------------------------------------------|
G|---14-14----14-----14----------------------------|
D|-------------------------------------------------|
A|-------------------------------------------------|
E|-------------------------------------------------|


============================================================================
| Legend
|
| Q = Quarter
| H = Half
| Q.= 1.5 beats
| H.= 3 beats
| W = Whole
| T = Tremelo Picking/32nd Notes
|
=============================================================================
Tap to rate this tab
# A B C D E F G H I J K L M N O P Q R S T U V W X Y Z