Song name
# A B C D E F G H I J K L M N O P Q R S T U V W X Y Z

Evans Blue - Quote tab

----------------------------------------------------------------------------
			     SONG NAME - Band Name
----------------------------------------------------------------------------
Tabbed by: El carnicero
Email: Geg205@aim.com

Tuning: Eb Ab Db Gb Bb eb


Intro/Verse 1

eb|-------------------------------------------------------------------5-----|
Bb|----------3-----------------3--------------3-------------2-3---2~----3-2-|
Gb|------4-----4-4~--------4-----4-4~-----4-----4-4~------4-----4-----------|
Db|----4---4-------------4---4----------5---5-----------4-------------------|
Ab|--2-----------------0--------------3---------------5---------------------|
Eb|-------------------------------------------------------------------------|


|-----------------5-----2-------|
|-------2-3---2~----3-2---3-2-0-|
|-----4-----4-------------------|   3x
|---4---------------------------|
|-5-----------------------------|
|-------------------------------|

Chorus:
Here are the main chords (stars for when to strum chords)

|-------------------3---------0-----------------------------------------|
|---3---------------2---------2-------------3----------2----------------|
|---4---------------3---------3-------------2----------2----------------|
|---4---------------0---------0-------------2----------2----------------|
|---2---------------------------------------0----------0----------------|
|-----------------------------------------------------------------------|
Is this how you *wanna* go *down*? Right be*fore* my *eyes*,


|-------------------------------------|
|---------------2--------3------------|
|---------------2--------0------------|  2x
|---------------4--------0------------|
|---------------4--------2------------|
|---------------2--------3------------|
you are the *saddest* *sight*

Verse 2 (same as intro)

|-------------------------------------------------------------------5-----|
|----------3-----------------3--------------3-------------2-3---2~----3-2-|
|------4-----4-4~--------4-----4-4~-----4-----4-4~------4-----4-----------|
|----4---4-------------4---4----------5---5-----------4-------------------|
|--2-----------------0--------------3---------------5---------------------|
|-------------------------------------------------------------------------|


|-----------------5-----2-------|
|-------2-3---2~----3-2---3-2-0-|
|-----4-----4-------------------|   3x
|---4---------------------------|
|-5-----------------------------|
|-------------------------------|


Chorus (same thing again)


Verse 3: Heavy Distortion
(basically the same as the chorus, just repetitive strumming)

|--2-------------------3----------------0----|
|--3-------------------2----------------2----|
|--4-------------------3----------------3----|
|--4-------------------0----------------0----|
|--2-----------------------------------------|
|--------------------------------------------|
And you were right, *right* from the *start*


|-------------------------------------------2--------3---------|
|-----------3--------------2----------------2--------3---------|
|-----------2--------------2----------------2--------0---------|
|-----------2--------------2----------------4--------0---------|
|-----------0--------------0----------------4--------2---------|
|-------------------------------------------2--------3---------|
It took *everything* you *had*, but you *finally* *broke* my...


solo (not exact)                           Small second guitar backing
                                           (Listen to song for timing)
|-10-10-10-10-10-10-10-10-10--------|      |---------------|
|-10-10-10-10-10-10-10-10-10--------|      |--8-h10-8-h10~-|
|-----------------------------------|      |---------------|  5x
|-----------------------------------|      |---------------|
|-----------------------------------|      |---------------|
|-----------------------------------|      |---------------|


repeat x4
|-14--14--p10--10--10--10-10-10-10--|
|-15--15--p10--10--10--10-10-10-10--|
|-----------------------------------|  3x
|-----------------------------------|
|-----------------------------------|
|-----------------------------------|

Bridge after solo:
(Listen for timing)                          (On last time)

|---2-------------2------3------|       ----2-------3-------2-----3--|
|---2------2------3------3------|       ----2-------3-------2-----3--|
|---2------2------4------0------|  2x   ----2-------0-------2-----0--|
|---4------2------4------0------| Then  ----4-------0-------4-----0--|
|---4------0------2------2------|       ----4-------2-------4-----2--|
|---2--------------------3------|       ----2-------3-------2-----3--|
                                      Away from your saddness, away from
                                       the nothingness you feel for me


Last Chorus: Same thing

Last 4 chords of Verse 3

Outro: Same as Intro


~Thats pretty much how it sounds to me, so it should be all right.
  Please rate!


| /  slide up
| \  slide down
| h  hammer-on
| p  pull-off
| ~  vibrato
| +  harmonic
| x  Mute note
============================================================================
Tap to rate this tab
# A B C D E F G H I J K L M N O P Q R S T U V W X Y Z