Song name
# A B C D E F G H I J K L M N O P Q R S T U V W X Y Z

Evans Blue - Saturnalia tab

--------------------------------------------------------------------------
"Saturnalia" by Evans Blue
--------------------------------------------------------------------------
Tabbed by: thewakebehindyou@excite.com
September 1st 2008

An unreleased demo track.
Note: As of 25 September 2008, the entire song is tabbed.

Tuning: C# G# C# F# A# D#
Tempo: 144 bpm

============================================================================

Intro

e|---------------------------------------|
B|---------------------------------------|
G|------7-----5-----7-----9-----9h10-----|
D|---0-----0-----0-----0-----0-----------| x6
A|---------------------------------------|
E|---------------------------------------|

e|-----------------------------------------------------8-----6----------|
B|------8-----6-----10-----8-----10h11-----8-----6-----------------10---|
G|----------------------------------------------------------------------|
D|---0-----0-----0------0-----0---------0-----0-----0-----0-----0-------| x1
A|----------------------------------------------------------------------|
E|----------------------------------------------------------------------|

e|---------------------------------------|
B|---------------------------------------|
G|------7-----5-----7-----9-----9h10-----|
D|---0-----0-----0-----0-----0-----------| x4
A|---------------------------------------|
E|---------------------------------------|

e|---------------------------------------|
B|------8-----6-----10-----8-----10h11---|
G|---------------------------------------|
D|---0-----0-----0------0-----0----------| x2
A|---------------------------------------|
E|---------------------------------------|

e|-----------------------------------------------------8-----6----------|
B|------8-----6-----10-----8-----10h11-----8-----6-----------------10---|
G|----------------------------------------------------------------------|
D|---0-----0-----0------0-----0---------0-----0-----0-----0-----0-------| x1
A|----------------------------------------------------------------------|
E|----------------------------------------------------------------------|

e|------10-----8-----13-----8-----8h10---|    |-----10-----8-----8h10---|
B|---------------------------------------|    |-------------------------|
G|---------------------------------------|    |-------------------------|
D|---0------0-----0------0-----0---------| x3 |--0------0-----0---------| x1
A|---------------------------------------|    |-------------------------|
E|---------------------------------------|    |-------------------------|

e|----------------------------------------------------------|
B|----------------------------------------------------------|
G|----------------------------------------------------------|
D|--0----1-1--1-0----1-1-3-1-0----1-1--1-0----1-1-3-1-0-----|
A|--0----1-1--1-0----1-1-3-1-0----1-1--1-0----1-1-3-1-0-----|
E|--0----1-1--1-0----1-1-3-1-0----1-1--1-0----1-1-3-1-0-----|


Verse I

e|--------------------------------------|
B|--------------------------------------|
G|--------7-----5-----8-----7-----7-----|
D|---0-0--x--0--x--0--x--0--x--0--x-----|
A|---0-0--5--0--3--0--6--0--5--0--5-----| \
E|---0-0-----0-----0-----0-----0--------|  \
					    x4
e|--------------------------------------|  /
B|--------------------------------------| /
G|--------7-----5-----8-----7-----3-5---|
D|---0-0--x--0--x--0--x--0--x--0--x-x---|
A|---0-0--5--0--3--0--6--0--5--0--1-3---|
E|---0-0-----0-----0-----0-----0--------|

"... to bury their dead..."
e|----------------------------------------------------------|
B|----------------------------------------------------------|
G|----------------------------------------------------------|
D|--0----1-1--1-0----1-1-3-1-0----1-1--1-0----1-1-3-1-0-----| x1
A|--0----1-1--1-0----1-1-3-1-0----1-1--1-0----1-1-3-1-0-----|
E|--0----1-1--1-0----1-1-3-1-0----1-1--1-0----1-1-3-1-0-----|


Chorus

"Hey, won't you come down..."
e|------------------------------------------------------------------------|
B|------------------------------------------------------------------------|
G|------5-----7------5-7-5---------------5-----7-----5-7-5----------------|
D|---0--x--0--x---0--x-x-x--0--1-1--1-0--x--0--x--0--x-x-x--0--1-1-3-1-0--| x2
A|---0--3--0--5---0--3-5-3--0--1-1--1-0--3--0--5--0--3-5-3--0--1-1-3-1-0--|
E|---0-----0------0---------0--1-1--1-0-----0-----0---------0--1-1-3-1-0--|


Verse II

e|--------------------------------------|
B|--------------------------------------|
G|--------7-----5-----8-----7-----7-----|
D|---0-0--x--0--x--0--x--0--x--0--x-----|
A|---0-0--5--0--3--0--6--0--5--0--5-----| \
E|---0-0-----0-----0-----0-----0--------|  \
					    x4
e|--------------------------------------|  /
B|--------------------------------------| /
G|--------7-----5-----8-----7-----3-5---|
D|---0-0--x--0--x--0--x--0--x--0--x-x---|
A|---0-0--5--0--3--0--6--0--5--0--1-3---|
E|---0-0-----0-----0-----0-----0--------|

"...don't look in my eyes..."
e|----------------------------------------------------------|
B|----------------------------------------------------------|
G|----------------------------------------------------------|
D|--0----1-1--1-0----1-1-3-1-0----1-1--1-0----1-1-3-1-0-----| x1
A|--0----1-1--1-0----1-1-3-1-0----1-1--1-0----1-1-3-1-0-----|
E|--0----1-1--1-0----1-1-3-1-0----1-1--1-0----1-1-3-1-0-----|


Chorus

"Hey, won't you come down..."
e|------------------------------------------------------------------------|
B|------------------------------------------------------------------------|
G|------5-----7------5-7-5---------------5-----7-----5-7-5----------------|
D|---0--x--0--x---0--x-x-x--0--1-1--1-0--x--0--x--0--x-x-x--0--1-1-3-1-0--| x2
A|---0--3--0--5---0--3-5-3--0--1-1--1-0--3--0--5--0--3-5-3--0--1-1-3-1-0--|
E|---0-----0------0---------0--1-1--1-0-----0-----0---------0--1-1-3-1-0--|


Bassline

e|-----|
B|-----|
G|-----|
D|-----|
A|-----|
E|-----|


Bridge 

"...Isn't Fake..."
e|-----------------------------------------|
B|-----------------------------------------|
G|-----------------------------------------|
D|---0-5-7--0-3-5--0-2-3--0-3-5--0-2-3-0---| x8
A|---0-5-7--0-3-5--0-2-3--0-3-5--0-2-3-0---|
E|---0-5-7--0-3-5--0-2-3--0-3-5--0-2-3-0---|

"...Now, You're Fucking Mine..."
e|----------------------------------------------------------|
B|----------------------------------------------------------|
G|----------------------------------------------------------|
D|--0----1-1--1-0----1-1-3-1-0----1-1--1-0----1-1-3-1-0-----| x1
A|--0----1-1--1-0----1-1-3-1-0----1-1--1-0----1-1-3-1-0-----|
E|--0----1-1--1-0----1-1-3-1-0----1-1--1-0----1-1-3-1-0-----|


Chorus

"Hey, won't you come down..."
e|------------------------------------------------------------------------|
B|------------------------------------------------------------------------|
G|------5-----7------5-7-5---------------5-----7-----5-7-5----------------|
D|---0--x--0--x---0--x-x-x--0--1-1--1-0--x--0--x--0--x-x-x--0--1-1-3-1-0--| x5
A|---0--3--0--5---0--3-5-3--0--1-1--1-0--3--0--5--0--3-5-3--0--1-1-3-1-0--|
E|---0-----0------0---------0--1-1--1-0-----0-----0---------0--1-1-3-1-0--|


Outro

e|-----------------------------------------------------8-----6----------|
B|------8-----6-----10-----8-----10h11-----8-----6-----------------10---|
G|----------------------------------------------------------------------|
D|---0-----0-----0------0-----0---------0-----0-----0-----0-----0-------| x1
A|----------------------------------------------------------------------|
E|----------------------------------------------------------------------|


============================================================================
Tap to rate this tab
# A B C D E F G H I J K L M N O P Q R S T U V W X Y Z