Song name
# A B C D E F G H I J K L M N O P Q R S T U V W X Y Z

Evans Blue - Dark That Follows tab

----------------------------------------------------------------------------
		DARK THAT FOLLOWS - Evans Blue
----------------------------------------------------------------------------
Tabbed by: El Carnicero
Email: Geg205@aim.com

Ok, I did this whole thing by ear and I think it's about 90% or more  complete and 
but I'll let you be the judge.  However, I did not include the strumming patterns, but if you 
to the song, you should easily be able to pick them up with no trouble. Thanks, Please rate!

Tuning: Dropped C# (C# G# C# F# Bb D#)

Intro (Open on the bottem 3 strings fades in after 2 measures)

|-------------------------------------------------------------------------|
|-------------------------------------------------------------------------|
|-------------------------------------------------------------------------|
|---0~-----9~---12--11---7~---9~---12--11---7---9-------------------------|
|---0~-----9~---9---9----7~---9~---9---9----7---7-------------------------|
|---0~-----9~---9---9----7~---9~---9---9----7---7-------------------------|
( ~ means let ring in this case)

Guitar 1  (4x)
|--------------------------------------|
|--------------------------------------|
|--------------------------------------|
|---9---11--12--11---7---9---11--9-----|
|---9---9---9---9----7---7---7---7-----|
|---9---9---9---9----7---7---7---7-----|

Guitar 2 (4x)
|-------------------------------------------------------------------------|
|-------------------------------------------------------------------------|
|----------6-7-6-6h7p6-------------6-7-6-7p6------------------------------|
|-----7-7--------------7-------7-7-----------7----------------------------|
|-9-9----------------------9-9--------------------------------------------|
|-------------------------------------------------------------------------|

Guitar 1 (2x)
|-------------------------------------------------------------------------|
|-------------------------------------------------------------------------|
|-------------------------------------------------------------------------|
|--10p9--9--10p9--9--10p9--9--10p9--7-7-----------------------------------|
|--10p9--9--10p9--9--10p9--9--10p9--7-7-----------------------------------|
|--10p9--9--10p9--9--10p9--9--10p9--7-7-----------------------------------|

Guitar 2 (2x)
|------------------------------------------------5------------------------|
|---7-8-7-5-7--7-8-7-5-7--7-8-7-5-7--7-8-7-5-7-8---8-7-5-7-8-7-5-7~-------|
|-------------------------------------------------------------------------|
|-------------------------------------------------------------------------|
|-------------------------------------------------------------------------|
|-------------------------------------------------------------------------|
(palm muted for the most part)

Verse 1 (2x)
|-------------------------------------------------------------------------|
|-------------------------------------------------------------------------|
|-------------------------------------------------------------------------|
|--9---11--12--11--7---9---11--9------------------------------------------|
|--9---9---9---9---7---7---7---7------------------------------------------|
|--9---9---9---9---7---7---7---7------------------------------------------|

Pre-Chorus

Guitar 1 (6x)
|-------------------------------------------------------------------------|
|-10p7p0-7-7p5h7/10p0h7p0h5h7p5p0-----------------------------------------|
|-------------------------------------------------------------------------|
|-------------------------------------------------------------------------|
|-------------------------------------------------------------------------|
|-------------------------------------------------------------------------|

Guitar 2
|-------------------------------------------------------------------------|
|-------------------------------------------------------------------------|
|-------------------------------------------------------------------------|
|-5--5/7--7--4--5--5--5/7--7----------------------------------------------|
|-5--5/7--7--4--5--5--5/7--7----------------------------------------------|
|-5--5/7--7--4--5--5--5/7--7----------------------------------------------|

Chorus (2x)
                                      After the harmonic parts one
Both Guitars                          guitar plays these four notes.
|-----------------------------------------15--14--15--14---|
|----------------------------------------------------------|
|--12\11\9/11---9--7---------------------------------------|
|--x---x-x-x----x--x----9--11-12-11------------------------|
|--10\-9\7/9----7--5----9--9--9--9-------------------------|
|--0---0-0-0----0--0----9--9--9--9-------------------------|
            (2x) then
|-------------------------2---0--------7----------------------------------|
|------------------------------------5------------------------------------|
|-----------11----------4---2------7--------------------------------------|
|---5--5/7--9-------------------------------------------------------------|
|---5--5/7--9-------------------------------------------------------------|
|---5--5/7--9-------------------------------------------------------------|
           (clean)

Verse 3
|---2-------0---2-----|
|-----3---3---3---3---|
|-------4-------------| (16x) I'm sure there is a 2nd guitar part here but
|---------------------|       it's really tough to make out, so here's what
|---------------------|       I think is the closest to one guitar.
|---------------------|
(Play these as 8th notes.)

Bridge (Distortion again)
|-------------------------------------------------------------------------|
|-------------------------------------------------------------------------|
|-------------------------------------------------------------------------|
|--9--11-12-11---5--7---9--11-12-11---5--7--7--0~-------------------------|
|--9--9--9--9----5--5---9--9--9--9----5--5--7--0~-------------------------|
|--9--9--9--9----5--5---9--9--9--9----5--5--7--0~-------------------------|

Repeat Chorus, pausing for breaks when guitars cut out.

Post-Chorus
|---------------------------------------------------------------------------|
|---------------------------------------------------------------------------|
|---------------------------------------------------------------------------|
|--5--5/7--4--5--5--5/7---10p9--9--10p9--9--10p9--9--10p9--7--7h9-----------|
|--5--5/7--4--5--5--5/7---10p9--9--10p9--9--10p9--9--10p9--7--7h9-----------|
|--5--5/7--4--5--5--5/7---10p9--9--10p9--9--10p9--9--10p9--7--7h9-----------|
                          |----------------(2x)-----------------------------|

Outro (2x)
|-------------------------------------------------------------------------|
|-------------------------------------------------------------------------|
|-------------------------------------------------------------------------|
|--10p9--xxxx--10p9--xxxx--10p9--xxxx--10p9--7-7--------------------------|
|--10p9--xxxx--10p9--xxxx--10p9--xxxx--10p9--7-7--------------------------|
|--10p9--xxxx--10p9--xxxx--10p9--xxxx--10p9--7-7--------------------------|


| /  slide up
| \  slide down
| h  hammer-on
| p  pull-off
| ~  vibrato
| +  harmonic
| x  Mute note
===============================================================================
Tap to rate this tab
# A B C D E F G H I J K L M N O P Q R S T U V W X Y Z