Song name
# A B C D E F G H I J K L M N O P Q R S T U V W X Y Z

Evans Blue - Pursuit tab

Tuning (Low to high): A, E, A, D, Gb, B

Ok. First off, you're gonna see the wierd, low tuning. Deal with it, this IS actually
some of the songs off the new album are in. The second thing you're gonna notice is that I
VERY few of the ryhthm parts for the song. This is because I'm not sure of them, and I 
don't wanna butcher it, but there really needs to be a tab for this song. The leads
be dead on, though, or at least close enough that you can figure it out.

Guitar 1: Rhythm

Guitar 2: Lead

Intro: (00:00)

Guitar 2: (00:00)
----------------------------------------------------|
----------------------------------------------------|
----------------------------------------------------|
----------------------------------------------------| x2
2h3-----------------------2h3-----------------------|
----0-2-0-2-0-2-0-2/3p0-------0-2-0-2-0-2-0-2-5-5-5-|

Both Guitars: (00:08)

----------------------------------------------------|
----------------------------------------------------|
----------------------------------------------------|
----0-2-0-2-0-2-0-2/3p0-------0-2-0-2-0-2-0-2-5-5-5-| x2
2h3-0-2-0-2-0-2-0-2/3p0---2h3-0-2-0-2-0-2-0-2-5-5-5-|
----0-2-0-2-0-2-0-2/3p0-------0-2-0-2-0-2-0-2-5-5-5-|

Verse: (00:18)

Guitar 1: (00:18)

--------------------|
--------------------|
--------------------|
2-------------------|
2-let ring----------|
2-------------------|

Guitar 2: (00:18)

--------------------|
------8-7-------8-7-|
--------------------|
9---9-----9---9-----|
--------------------|
--------------------|

-------------------------------------------|
------8-7-------8-7-------8-7-------8-7----|
--------------------7---7-----9---9--------|
9---9-----9---9----------------------------| x4, then:
-------------------------------------------|
-------------------------------------------|

-------------------|
-------------------|
-------------------|
9----------x-x-x-x-|
-----------x-x-x-x-|
-----------x-x-x-x-|

Chorus: (01:03)

Guitar 2: (01:03)

------------------------------------------------|
------------------------------------------------|
12--14--16--14--16--17--16--12--16--14--11--12--|
x---x---x---x---x---x---x---x---x---x---x---x---| x2
10--12--14--12--14--15--14--10--14--12--9---10--|
------------------------------------------------|

Verse: (01:22)

Guitar 2: (01:22)

--------------------|
----------------8-7-|
12------------------|
x-------------------|
10------------------|
--------------------|

-------------------------------------------|
------8-7-------8-7-------8-7-------8-7----|
--------------------7---7-----9---9--------|
9---9-----9---9----------------------------| x4, then:
-------------------------------------------|
-------------------------------------------|

-------------------|
-------------------|
-------------------|
9----------x-x-x-x-|
-----------x-x-x-x-|
-----------x-x-x-x-|

Chorus: (02:06)

Guitar 2: (02:06)

------------------------------------------------|
------------------------------------------------|
12--14--16--14--16--17--16--12--16--14--11--12--|
x---x---x---x---x---x---x---x---x---x---x---x---| x3
10--12--14--12--14--15--14--10--14--12--9---10--|
------------------------------------------------|

Bridge: (02:35)

Both guitars: (02:35)
.  . . . .  . .
-----------------| dots = palm muted
-----------------|
-----------------|
2--2-2-2-2--2-2--| x3, then:
2--2-2-2-2--2-2--|
2--2-2-2-2--2-2--|
.  . . . .
-----------------|
-----------------|
-----------------|
2--2-2-2-2--5-4--|
2--2-2-2-2--5-4--|
2--2-2-2-2--5-4--|

Guitar 1: (02:44)

-----------------------------------------|
-----------------------------------------|
-----------------------------------------|
2---------------/---5--------------------|
2---------------/---5--------------------|
2---------------/---5--------------------|

Guitar 2: (02:44)

----------------------------------------|
------8-7-------8-7-------8-7-------8-7-|
--------------------7---7-----7---7-----|
9---9-----9---9-------------------------|
----------------------------------------|
----------------------------------------|

-------------------------------------------|
------8-7-------8-7-------8-7-------8-7----|
--------------------7---7-----9---9--------|
9---9-----9---9----------------------------| x2, then:
-------------------------------------------|
-------------------------------------------|

------------------------------------------------|
------------------------------------------------|
12--14--16--14--16--17--16--12--16--14--11--12--|
------------------------------------------------| x2
------------------------------------------------|
------------------------------------------------|

Chorus + Outro

Guitar 2

------------------------------------------------|
------------------------------------------------|
12--14--16--14--16--17--16--12--16--14--11--12--|
x---x---x---x---x---x---x---x---x---x---x---x---| Just repeat this until the
10--12--14--12--14--15--14--10--14--12--9---10--| end of the song.
------------------------------------------------|

That's it, great song, great band! Enjoy.
Tap to rate this tab
# A B C D E F G H I J K L M N O P Q R S T U V W X Y Z