Guitaretab - guitar tabs
Song name
# A B C D E F G H I J K L M N O P Q R S T U V W X Y Z

Evans Blue - My Damsel A Confession To An Adversary tab

-----------------------------------------------------------------------------
			     My Damsel - Evans Blue
-----------------------------------------------------------------------------
Tabbed by: thewakebehindyou
Email: thewakebehindyou@excite.com

Intro to track 5 from Evans Blue's sophomore album
"The Pursuit Begins When This Portrayal of Life Ends"

Any and all feedback is appreciated

Tuning: C# G# C# F# A# D#

===============================================================================

Vlad Tanaskovic
Lead Guitar

Intro Riff
2x
0:00 - 0:22
e|-----------------------------------------------|
B|---8-8-8---------------------------------------|
G|------------------8-8-8-7-7-7-8-8--------------|
D|---------10-10-10-----------------10-10--------|
A|-----------------------------------------------|
E|-----------------------------------------------|

e|-----------------------------------------------|
B|---8-8-8--------------------11-11-11-----------|
G|------------------8-8-8-7-7----------10-10-----|
D|---------10-10-10------------------------------|
A|-----------------------------------------------|
E|-----------------------------------------------|

e|-----------------------------------------------|
B|---8-8-8---------------------------------------|
G|------------------8-8-8-7-7-7-8-8--------------|
D|---------10-10-10-----------------10-10--------|
A|-----------------------------------------------|
E|-----------------------------------------------|
                                  |1st time only
e|--------------------------------|--------------|
B|--------------------------------|--------------|
G|----7-7-7----------------8-8-8--|--------------|
D|----------8-8-8-10-10-10--------|--10-10-8-8---|
A|--------------------------------|--------------|
E|--------------------------------|--------------|


===============================================================================


Parker Lauzon
Rhythm Guitar

Intro
0:03 - 0:10
e|--------------------------|
B|--------------------------|
G|--------------------------|
D|-8------10----8-8-8-------|
A|-8------10----8-8-8-------|
E|-8------10----8-8-8-------|
  fade in       x x x
[ Tab from: http://www.guitaretab.com/e/evans-blue/96934.html ]
0:11 - 0:22
 |3x
e|--------------------------------------------------------------------|
B|--------------------------------------------------------------------|
G|--------------------------------------------------------------------|
D|--8-10-10---8-10-10---8-10-10---8-10-8-10-13-10-8-------------------|
A|--8-10-10---8-10-10---8-10-10---8-10-8-10-13-10-8-------------------|
E|--8-10-10---8-10-10---8-10-10---8-10-8-10-13-10-8-------------------|

 |4th time
e|--------------------------------------------------------------------|
B|--------------------------------------------------------------------|
G|--------------------------------------------------------------------|
D|--8-10-10---8-10-10---8-10-10---8-10-8-10---------------------------|
A|--8-10-10---8-10-10---8-10-10---8-10-8-10---------------------------|
E|--8-10-10---8-10-10---8-10-10---8-10-8-10---------------------------|

0:23 - 0:35
e|------------------------------------------------------|
B|------------------------------------------------------|
G|------------------------------------------------------|
D|--8-10-10---8-10-10---8-10-10---8-10-8-10-13-10-8-----|
A|--8-10-10---8-10-10---8-10-10---8-10-8-10-13-10-8-----|
E|--8-10-10---8-10-10---8-10-10---8-10-8-10-13-10-8-----|

e|------------------------------------------------------|
B|------------------------------------------------------|
G|------------------------------------------------------|
D|--8-10-10---8-10-10---8-10-10---6p5-------------------|
A|--8-10-10---8-10-10---8-10-10-------8-6-5-------------|
E|--8-10-10---8-10-10---8-10-10-------------10-8-10-----|

e|------------------------------------------------------|
B|------------------------------------------------------|
G|------------------------------------------------------|
D|--8-10-10---8-10-10---8-10-10---8-10-8-10-13-10-8-----|
A|--8-10-10---8-10-10---8-10-10---8-10-8-10-13-10-8-----|
E|--8-10-10---8-10-10---8-10-10---8-10-8-10-13-10-8-----|

e|------------------------------------------------------|
B|------------------------------------------------------|
G|------------------------------------------------------|
D|--8-10-10---8-10-10---8-10-10---6p5-------------------|
A|--8-10-10---8-10-10---8-10-10-------8-6-5-------------|
E|--8-10-10---8-10-10---8-10-10-------------10-8-10-----|
Related for My Damsel A Confession To An Adversary tab
Advertisement will be closed in 10 seconds