Song name
# A B C D E F G H I J K L M N O P Q R S T U V W X Y Z

Eve 6 - Little Tiny Everything tab

Song:		"Little Tiny Everything"
Artist:		The Sugi Tap
Album:		The Sugi Tap EP

Tabbed by:	Dean (plastic.dwarf.warlord@gmail.com)

Rating & Comments plz


Tuning: 	Standard 
		(E A D G B e)



INTRO:

[CLEAN]
e|-----6-8------8-10---|
B|---8--------8--------|
G|-8--------8----------|6x
D|---------------------|
A|---------------------|
E|---------------------|

[OVERDRIVE]
e|-----6-8-----|
B|---8---------|
G|-8-----------|16x
D|-------------|
A|-------------|
E|-------------|




VERSE/PT1:			("When you're lonely you scream...")

No Guitar




VERSE/PT2:			("And you crashed into me like a comet...")

e|----------------------|
B|----------------------|
G|-----10~~~~-----------|2x
D|---8------------------|
A|-8--------------------|
E|----------------------|




PRE-CHORUS:			("And you saved me from myself...")

e|-----8-10-----8-10-----6-8-----6-8-----5-8-----5-8-----5-8-----5-8---|
B|---8--------8--------8-------8-------8-------8-------8-------8-------|
G|-8--------8--------8-------8-------8-------8-------8-------8---------|
D|---------------------------------------------------------------------|
A|---------------------------------------------------------------------|
E|---------------------------------------------------------------------|




CHORUS:				("I'm a recovering catholic...")

e|--------------------------------------------------|
B|--------------------------------------------------|
G|-8~~--------8~~---------10~~-------10~~----12~\---|2x
D|-8~~--------8~~---------10~~-------10~~----12~\---|
A|-6~~--------6~~----------8~~--------8~~----10~\---|
E|--------------------------------------------------|




POST-CHORUS:			("Little tiny everything.")

e|-----6-8-----|
B|---8---------|
G|-8-----------|12x
D|-------------|
A|-------------|
E|-------------|




VERSE 2/PT1:			("When you're fractious you scratch...")

e|--------------------------|
B|--------------------------|
G|------10~~~~--------------|1x
D|----8-------------8^~~~---|
A|--8-----------------------|
E|--------------------------|




VERSE 2/PT2:			("And you crashed into me like a comet...")

e|-----------------------|
B|-----------------------|
G|------10~~~~-----------|2x
D|----8------------------|
A|--8--------------------|
E|-----------------------|




PRE-CHORUS:			("And you saved me from myself...")

e|-----8-10-----8-10-----6-8-----6-8-----5-8-----5-8-----6-8-----6-8---|
B|---8--------8--------8-------8-------8-------8-------8-------8-------|
G|-8--------8--------8-------8-------8-------8-------8-------8---------|
D|---------------------------------------------------------------------|
A|---------------------------------------------------------------------|
E|---------------------------------------------------------------------|




CHORUS:				("I'm a recovering catholic...")

e|--------------------------------------------------|
B|--------------------------------------------------|
G|-8~~--------8~~---------10~~-------10~~----12~\---|2x
D|-8~~--------8~~---------10~~-------10~~----12~\---|
A|-6~~--------6~~----------8~~--------8~~----10~\---|
E|--------------------------------------------------|




POST-CHORUS:			("Little tiny everything.")

e|-----6-8-----|
B|---8---------|
G|-8-----------|12x
D|-------------|
A|-------------|
E|-------------|




BRIDGE SOLO:

e|---------------------------------6-6-6-6-6-6-6-6-10-10-10-10-10-10-10-10-|
B|-4-4-4-4-4-4-4-4-6-6-6-6-6-6-6-6-----------------------------------------|
G|-------------------------------------------------------------------------|
D|-------------------------------------------------------------------------|
A|-------------------------------------------------------------------------|
E|-------------------------------------------------------------------------|
(contd)
e|-11-11-11-11-11-11-11-11-13-13-13-13-13-13-13-13---|
B|---------------------------------------------------|
G|---------------------------------------------------|
D|---------------------------------------------------|
A|---------------------------------------------------|
E|---------------------------------------------------|
(contd)
e|-16-16-16-15-15-15-13-13-13-13-13-13-13-13---|
B|---------------------------------------------|
G|---------------------------------------------|
D|---------------------------------------------|
A|---------------------------------------------|
E|---------------------------------------------|




CHORUS:				("I'm a recovering catholic...")

e|--------------------------------------------------|
B|--------------------------------------------------|
G|-8~~--------8~~---------10~~-------10~~----12~\---|2x
D|-8~~--------8~~---------10~~-------10~~----12~\---|
A|-6~~--------6~~----------8~~--------8~~----10~\---|
E|--------------------------------------------------|




OUTRO:				("My, little tiny everything.")

e|-----6-8-----|
B|---8---------|
G|-8-----------|18x
D|-------------|
A|-------------|
E|-------------|

e|-------------|
B|-------8-----|
G|-----8-------|4x
D|---8---------|
A|-6-----------|
E|-------------|


END ON:

e|-------------|
B|-------------|
G|-8~~---------|
D|-8~~---------|
A|-6~~---------|
E|-------------|
Tap to rate this tab
# A B C D E F G H I J K L M N O P Q R S T U V W X Y Z