Song name
# A B C D E F G H I J K L M N O P Q R S T U V W X Y Z

Eve 6 - Nocturnal tab

Eve 6 - Nocturnal

Intro:
E-5----4--------5-----5-5-5-5-5-5-5-5-|
B-5-------------5-----5-5-5-5-5-5-5-5-|
G-------------------------------------|
D-------------------------------------| x2
A-------------------------------------|
E-------------------------------------|

E-7----6--------7-----7-7-7-7-7-7-7-7-|
B-7-------------7-----7-7-7-7-7-7-7-7-|
G-------------------------------------|
D-------------------------------------| x2
A-------------------------------------|
E-------------------------------------|

Pre-Verse:
Guitar1:
E-7----6--------7-----7-7-7-7-7-7-7-7-|
B-7-------------7-----7-7-7-7-7-7-7-7-|
G-------------------------------------|
D-------------------------------------| x2
A-------------------------------------|
E-------------------------------------|

Guitar2:
E---------------------------------------------------------------------|
B---------------------------------------------------------------------|
G-4-------------------------------------------------------------------|
D-4----------------4----------------6----------------2----------------|
A-2----------------4----------------6----------------2----------------|
E------------------2----------------4----------------0----------------|

Verse:
E-----------------------------------------------------------------------------|
B-----------------------------------------------------------------------------|
G----------------------------------------------------------9------------------|
D-4------------------4------------------6------------------7----7--7--7-7-7-7-| x2
A-2----2--2--2-2-2-2-2----2--2--2-2-2-2-4----4--4--4-4-4-4--------------------|
E-----------------------------------------------------------------------------|
       PM *  * * * *	   *  *  * * * *      *  *  * * * *	   *  *  * * * *

E-----------------------------------------------------------------------------|
B-----------------------------------------------------------------------------|
G-----------------------------------------------------------------------------|
D-4------------------4------------------6-------------------------------------|
A-2----2--2--2-2-2-2-2----2--2--2-2-2-2-4----4--4--4-4-4-4-2----2--------2----|
E----------------------------------------------------------0----0--------0----|
       PM *  * * * *	   *  *  * * * *      *  *  * * * *

E-----------------------------------------------------------------------------|
B----------------------------------------------------------9----9--9--9-9-9-9-|
G----------------------------------------------------------9----9--9--9-9-9-9-|
D-4------------------4------------------6------------------7----7--7--7-7-7-7-| x2
A-2----2--2--2-2-2-2-2----2--2--2-2-2-2-4----4--4--4-4-4-4--------------------|
E-----------------------------------------------------------------------------|
       PM *  * * * *	   *  *  * * * *      *  *  * * * *

Pre-Chorus: x2
E---------------------------------------------------0------0-----------------------|
B---------------------------------------------------0------0-----------------------|
G---------------------------------------------------x------x----1----1--1--1-1-1-1-|
D---------------------------------------------------2------2----2----2--2--2-2-2-2-|
A-4--4--4----4--4--4----4--4--4----4--4--4----------------------2----2--2--2-2-2-2-|
E-2--2--2----2--2--2----2--2--2----2--2--2----0--0--------------0----0--0--0-0-0-0-|

Chorus:
E------------------------------------------------------------------------|
B------------------------------------------------------------------------|
G-4-----------4---------------------------4-----------4------------------|
D-4------4----4----4--6------2----4----2--4------4----4----4--6-----2----|
A-2------4----2----4--6------2----4----2--2------4----2----4--6-----2----|
E--------2---------2--4------0----2----0---------2---------2--4-----0----|

E--------------------------------------------------------------------|
B--------------------------------------------------------------------|
G-----------------4----4--4-----------------------------------4------|
D-4----4--2----2--4----4--4--0--4--4--4--6----6--6------2--2--4------|
A-4----4--2----2--2----2--2--0--4--4--4--6----6--6------2--2--2------|
E-2----2--0----0----------------2--2--2--4----4--4--0-0-0--0---------|
		PM				          *  *
E----------------------0-------|
B-------------------0--0-------|
G-------------------x--x-------|
D-4----6----6----2--2--2-------|
A-4----6----6----2--2--2----2--|
E-2----4----4----0--0--0----0--|

Play Pre-Verse x2

Verse2:
E---------|
B---------|
G---------|
D-9\\\\\--		Guitars are silent; bass only
A-9\\\\\--
E-7\\\\\--
	Comes in after “..infamy”
E--------------------------------------------------|
B--------------------------------------------------|
G----4--6--4-----4--6--4-----4--6--4-----4-6--6-4--|
D-4-----------6-----------4-----------6------------| x2
A--------------------------------------------------|
E--------------------------------------------------|

Play Pre-Chorus Riff x2
Play Chorus
Play Pre-Verse x2

Interlude/Bridge:
E-------------------------------------------------------|
B-4-----4-----------------------------------------------|
G-4--4--4--4-4-4-4----4--4-4-4--4--4----------4--4--0-0-| x8
D------------------4--4--4-4-6--6--6--6-6-6-6-4--4--0-0-|
A-------------------------------------------------------|
E-------------------------------------------------------|
  PM *  *  * * * * *  *  * * *  *  *  * * * * *  *  * *

E---------------------------------------------------------|
B-----4------4------4-------------------------------------|
G-4-4-4--4-4-4------4------4------4------4------4------4--|
D---------------4-4----4-4-4--6-6-6--6-6-6--6-4-4--4-4-4--|
A---------------------------------------------------------|
E---------------------------------------------------------|
  PM*    * *    * *    * *    * *    * *    * *    * *

E--------------------------------------------5-5-5--5--5-5-555-5-5-5--|
B-----4------4-------------------------------5-5-5--5--5-5-555-5-5-5--|
G-4-4-4--4-4-4------4------4------4-----------------------------------|
D---------------4-4-4--4-4-4--6-6-6--6-6-0-0--------------------------|
A----------------------------------------0-0--------------------------|
E---------------------------------------------------------------------|
  PM*    * *    * *    * *    * *    * *

Last Chorus:
E------------------------------------------------------------------------|
B------------------------------------------------------------------------|
G-4-----------4---------------------------4-----------4------------------|
D-4------4----4----4--6------2----4----2--4------4----4----4--6-----2----|
A-2------4----2----4--6------2----4----2--2------4----2----4--6-----2----|
E--------2---------2--4------0----2----0---------2---------2--4-----0----|

E------------------------------------------------------------------|
B------------------------------------------------------------------|
G-----------------4----4--4----------------------------------------|
D-4----4--2----2--4----4--4--0--4--4--4--6----6--6------2----------|
A-4----4--2----2--2----2--2--0--4--4--4--6----6--6------2----------|
E-2----2--0----0----------------2--2--2--4----4--4--0-0-0----------|
		PM
E----------------------------------|
B----------------------------------|
G----------------------------------|
D-4----6----6----2-2-2--2--2-2-2-2-|
A-4----6----6----2-2-2--2--2-2-2-2-|
E-2----4----4----0-0-0--0--0-0-0-0-|

Play Pre-Verse x4

Outro:
E-7----------------7\\\-----|
B-7----------------7\\\-----|
G---------------------------|
D---------------------------|
A---------------------------|
E---------------------------|


Enjoy! Comments and ratings appreciated.

Courtesy of PBizzle.
Tap to rate this tab
# A B C D E F G H I J K L M N O P Q R S T U V W X Y Z