Song name
# A B C D E F G H I J K L M N O P Q R S T U V W X Y Z

Eve 6 - Jesus Nitelite tab

e/--------------------------------------------------------------------------|
B/--------------------------------------------------------------------------|
G/--------4--------4-----4--------4--------4-----4--------7--------7-----7--|
D/--------4--------4-----4--------4--------4-----4--------7--------7-----7--|
A/--2--2-----2--2-----2-----------------------------5--5-----5--5-----5-----|
E/--------------------------3--3-----3--3-----3-----------------------------|
    .  .     .  .     .     .  .     .  .     .     .  .     .  .     .

e/------------------------||------------------------------------------------|
B/------------------------||------------------------------------------------|
G/--------6-----6/7\6--6~~||------------------------------------------------|
D/--------0-----0------0--||------------------------------------------------|
A/--0--0-----0------------||------------------------------------------------|
E/------------------------||------------------------------------------------|
    .  .     .


first tab that ive done so plz be kind lol um... sounds pretty much right to me.. no one
has tabs on here on how to play the intro the right way so i figured id put my ear to
test for the first time thanks... if your interested havin the rest of the song tabbed 
me at pa_matty@yahoo.com
Tap to rate this tab
# A B C D E F G H I J K L M N O P Q R S T U V W X Y Z