Song name
# A B C D E F G H I J K L M N O P Q R S T U V W X Y Z

Eve 6 - Enemy tab

Eve 6 - Enemy

Drop D: D A D G B E

Intro: played by synthesizer

Verse: x9
E--5-5-x-x-x-x-5-5-x-x-x-x-x-x-x-x-|
B--5-5-x-x-x-x-5-5-x-x-x-x-x-x-x-x-|
G--7-7-x-x-x-x-7-7-x-x-x-x-x-x-x-x-|
D--7-7-x-x-x-x-7-7-x-x-x-x-x-x-x-x-|
A--0-0---------0-0-----------------|
D--0-0---------0-0-----------------|

Pre-Chorus:
E--5-5--x-x-x-x-x-x---------------------------------|
B--5-5--x-x-x-x-x-x---------------------------------|
G--7-7--x-x-x-x-x-x---------------------------------|
D--7-7--x-x-x-x-x-x-2-2-2-2-2-2-2-2-2-2-2-2-2-2-2-0-|
A--0-0--------------0-0-0-0-0-0-0-0-0-0-0-0-0-0-0-0-|
D--0-0----------------------------------------------|
		     PM* * * * * * *
Chorus:
E-------------------------------------------------------|
B--3-3--3--3--3-----------------------------------------|
G--2-2--2--2--2---------------5----5--5-5---------------|
D--0-0--0--0--0--2--2--2------5----5--5-5-5--5--5-5-5-5-| x3
A--0-0--0--0--0--0--0--0------3----3--3-3-5--5--5-5-5-5-|
D-------------------------0-0-------------5--5--5-5-5-5-|

E-------------------------------------------------|
B--3-3--3--3--3-----------------------------------|
G--2-2--2--2--2--------------5--------------------|
D--0-0--0--0--0--2--2--2-----5--------------------|
A--0-0--0--0--0--0--0--0-----3--------4h5-0--4h5--|
D-------------------------0-----------4h5-0--4h5--|

Verse2:
Guitar1: x9
E--5-5-x-x-x-x-5-5-x-x-x-x-x-x-x-x-|
B--5-5-x-x-x-x-5-5-x-x-x-x-x-x-x-x-|
G--7-7-x-x-x-x-7-7-x-x-x-x-x-x-x-x-|
D--7-7-x-x-x-x-7-7-x-x-x-x-x-x-x-x-|
A--0-0---------0-0-----------------|
D--0-0---------0-0-----------------|

Guitar2: Comes in after Guitar1 has played 6 times
E----------------------------------------------------------|
B----------------------------------------------------------|
G--7-7-7-7-7-7-7-7-7-5--5---------------------------7------|
D--7-7-7-7-7-7-7-7-7-5--5------5-5-5-5-5-5-5-5-0----7------|
A--5-5-5-5-5-5-5-5-5-3--3------5-5-5-5-5-5-5-5-0-5--5------|
D------------------------------5-5-5-5-5-5-5-5-------------|
   PM* * * * * * * * *	        * * * * * * * * * *

E-----------------------------------------------|
B-----------------------------------------------|
G--7-7-7-7-7-7-7-7-7-5--5-----------------------|
D--7-7-7-7-7-7-7-7-7-5--5------5-5-5-5-5-5-5-5--|
A--5-5-5-5-5-5-5-5-5-3--3------5-5-5-5-5-5-5-5--|
D-----------------------------------------------|
   PM* * * * * * * * *

Pre-Chorus2:
Guitar1:
E--5-5-x-x-x-x-x-x-------------------------|
B--5-5-x-x-x-x-x-x-------3-----------3-----|
G--7-7-x-x-x-x-x-x----------2-----------2--|
D--7-7-x-x-x-x-x-x----2-----------2--------|
A--0-0-------------0-----------0-----------|
D--0-0-------------------------------------|

Guitar2:
E--------------------------------------------------|
B--------------------------------------------------|
G--------------------------------------------------|
D------------------2-2-2-2-2-2-2-2-2-2-2-2-2-2-2-2-|
A--5-5-5-5-5-5-5-5-0-0-0-0-0-0-0-0-0-0-0-0-0-0-0-0-|
D--5-5-5-5-5-5-5-5---------------------------------|
		    PM* * * * * * * * * * * * * * *
Guitars 1 and 2:
E------------------------------|
B--3-3--3-3--2-2--3-3-3-2-2-3--|
G--2-2--2-2--2-2--2-2-2-2-2-2--|
D--2-2--2-2--2-2--2-2-2-2-2-2--|
A--0-0--0-0--0-0--0-0-0-0-0-0--|
D------------------------------|

Play Chorus

Bridge:
Guitar1:
E------------------------------5---|
B--7---7---7---7---8---8---8-------|
G----7---7---7---7---7---7---7---7-|
D----------------------------------| x6
A----------------------------------|
D----------------------------------|

Guitar2: Comes in after guitar1 plays 5 times
E-----------------------------------------------------------------|
B-----------------------------------------------------------------|
G-----------------------------------------7-7-7-7-7-7-7-7-7-7-7-7-|
D-----------------------------------------5-5-5-5-5-5-5-5-5-5-5-5-|
A-5-5-5-5-5-5-5-5-------------------------------------------------|
D-----------------7-7-7-7-7-7-7-7-5-5-5-5-------------------------|
  PM* * * * * * * * * * * * * * * * * * *

Interlude:
E-------------------------------------------------------|
B-------------------------------------------------------|
G--9-9--9--9--9---------------9-9--9--9--9--------------|
D--9-9--9--9--9--4--4--4--0-0-9-9--9--9--9--2--2--2--0--|
A--7-7--7--7--7--2--2--2--0-0-7-7--7--7--7--0--0--0--0--|
D-------------------------------------------------------|

E----------------------------------0--0-0-------0-0-0---|
B----------------------------------0--0-0-------0-0-0---|
G--9-9--9--9--9--------------------2--2-2-------2-2-2---|
D--9-9--9--9--9--4--4--4--0-0-2-2---------2--2--------0-|
A--7-7--7--7--7--2--2--2--0-0-0-----------0-------------|
D-------------------------------------------------------|

Last Chorus:
E-------------------------------------------------------|
B--3-3--3--3--3-----------------------------------------|
G--2-2--2--2--2---------------5----5--5-5---------------|
D--0-0--0--0--0--2--2--2------5----5--5-5-5--5--5-5-5-5-| x3
A--0-0--0--0--0--0--0--0------3----3--3-3-5--5--5-5-5-5-|
D-------------------------0-0-------------5--5--5-5-5-5-|

E-------------------------------------------------------|
B--3-3--3--3--3-----------------------------------------|
G--2-2--2--2--2---------------5----5--5-----------------|
D--0-0--0--0--0--2--2--2------5----5--5-----------------|
A--0-0--0--0--0--0--0--0------3----3--3---5-5-5--5--0-0-|
D-------------------------0-0-----------5-5-5-5--5--0-0-|

E-----------------0-0--0---------------------------------|
B--3--3--3--3-3-3-1-1--1---------------------------------|
G--2--2--2--2-2-2-2-2--2------5--5--5--5-5---------------|
D--0--0--0--0-0-0-2-2--2------5--5--5--5-5-5-5-5--5------|
A--0--0--0--0-0-0-0-0--0------3--3--3--3-3-5-5-5--5--0-0-|
D-------------------------0-0--------------5-5-5--5--0-0-|

E--------------0-0-0--0--------------------------------|
B--3----3--3-3-1-1-1--1--------------------------------|
G--2----2--2-2-2-2-2--2------5----5--5-5---------------|
D--0----0--0-0-2-2-2--2------5----5--5-5-5-5-5--5------|
A--0----0--0-0-0-0-0--0-0-0--3----3--3-3-5-5-5--5--0-0-|
D--0----0--0-0----------0-0--------------5-5-5--5--0-0-|

E---------------0-0-0--0--------------------------------|
B--3--3--3--3-3-1-1-1--1--------------------------------|
G--2--2--2--2-2-2-2-2--2------5----5--5-5---------------|
D--0--0--0--0-0-2-2-2--2------5----5--5-5-5-5-5--5------|
A--0--0--0--0-0-0-0-0--0--0-0-3----3--3-3-5-5-5--5--0-0-|
D--0--0--0--0-0-----------0-0-------------5-5-5--5--0-0-|

E----------------0-0-0--0--------------------------------------------------|
B--3--3-3-3-3----1-1-1--1--------------------------------------------------|
G--2--2-2-2-2-2--2-2-2--2------5----5--5-5---------------------------------|
D--0--0-0-0-0-x--2-2-2--2------5----5--5-5-4h5--0-4h5----------------------|
A-------------4--0-0-0--0--0-2-3----3--3-3-4h5--0-4h5----0-----------------|
D------------------------------------------4h5--0-4h5--0-0-----------------|


Enjoy! Comments and ratings appreciated.

Courtesy of PBizzle.
Tap to rate this tab
# A B C D E F G H I J K L M N O P Q R S T U V W X Y Z