Song name
# A B C D E F G H I J K L M N O P Q R S T U V W X Y Z

Eve 6 - Small Town Trap tab

Eve 6
Small Town Trap
Standard Tuning
tabbed by tntrekabulator@hotmail.com
this tab isn't 100% accurate, but it is a start
/-slide up
\-slide down

{Intro} w/ slight delay
|---------------------------------------------------------------|
|---------------------------------------------------------------|
|---------------------------------------------------------------|
|------------14------------12----------9------9-----------------|
|-------14------------12-----------9--------------9-------------|
|--12------------10------------7----------7---------------------|

|----------------------------------------------------------------|
|----------------------------------------------------------------|
|-----------14-----------------12---------------9-----------9----|
|-------14-------14-------12-------12--------9------9----------9-|
|--12-----------------10------------------7--------------7-------|
|----------------------------------------------------------------|

Guitar Fill 1
|-------17-------|
|------------19--|
|----------------|
|----------------|
|----------------|
|----------------|

Bass (0:21-0:36)
Guitar Fill 2
|-------------------|
|-------------------|
|-------14----------|
|------------14-----|
|--12---------------|
|-------------------|
Verse(distortion)
P.M.-----------------------------------------------|
|--------------------------------------------------|
|--------------------------------------------------|
|----------14------------12----------9------9------|
|----------14------------12----------9------9------|
|---12-12-----12--10-10-----10---7-7---7--7---7----|
|--------------------------------------------------|

|--------------------------------|
|--------------------------------|
|------6-------------------------|
|--7---7---9-9-9-9-9-9-9-9-------|
|--7---7---9-9-9-9-9-9-9-9-------|
|--5---5---7-7-7-7-7-7-7-7-------|

Chorus
|----------------------------|
|----------------------------|
|-9--9\7---------------------|
|-9--9\7--7-7-7/9------------|
|-7--7\5--7-7-7/9------------|
|---------5-5-5/7------------|

|----------------------------|
|----------------------------|
|-9--9\7---------------------|
|-9--9\7--7-7-7-7------------|
|-7--7\5--7-7-7-7------------|
|---------5-5-5-5------------|

{Bridge}
|--------------------------------------------------|
|--------------------------------------------------|
|---------0------------0------------0---------0----|
|------0-----0------0-----0------0-----0---------0-|
|--------------------------------------------------|
|--3-------------5------------0------------0-------|

|---------------------------------------------------|
|-----------------------------------0---------------|
|---------0-------------0--------------0------0-----|
|------0-----0------0-------0-----0---------------0-|
|---------------------------------------------------|
|--3-------------5-------------0-----------0--------|

Outro same as chorus except end chord rings out slowly, and guitar fill one is played a few times.

Alt. Intro chords
|-----------------|
|---10---8----5---|
|---9----7----4---|
|---7----5----2---|
|-----------------|
|-----------------|
Tap to rate this tab
# A B C D E F G H I J K L M N O P Q R S T U V W X Y Z