Guitaretab - guitar tabs
Song name
# A B C D E F G H I J K L M N O P Q R S T U V W X Y Z

Eve 6 - Heres To The Night tab

.....-Palm Mute



Intro

E--3----3----|--3----3----|
B---------3--|---------3--|
G----0-------|----0-------|
D------------|------------|
A------------|------------|
E------------|------------|



Verse X3 (Lead)

E-----------|-----------|-----------|-----------|
B-----------|-----------|-----------|-----------|
G-----------|-----------|-----------|-----------|
D----5-5-5--|----5-5-5--|----5-5-5--|----5-5-5--|
A-----5-5---|-----5-5---|--3--5-5---|--5--5-5---|
E--3--------|--0--------|-----------|-----------|

Verse (Rhythm) X3
   G    Em       C            D
E--3333-0000--|--33333333--|--55555555--|
B--3333-0000--|--33333333--|--55555555--|
G--4444-0000--|--55555555--|--77777777--|
D--5555-2222--|--55555555--|--77777777--|
A--5555-2222--|--33333333--|--55555555--|
E--3333-0000--|------------|------------|


Pre Chorus (Lead)

E-----------|-----------|----------------|
B-----------|-----------|-----1------1---|
G------0-2--|------0-2--|----0-0----0-0--|
D----0------|----0------|----------------|
A-----------|-----------|--3------3------|
E--0--------|--3--------|----------------|

Prechorus (Rhythm)
[ Tab from: http://www.guitaretab.com/e/eve-6/27781.html ]
E--0000-3333--|--00000000--|--5555-3333--|
B--0000-3333--|--00000000--|--5555-3333--|
G--0000-4444--|--00000000--|--7777-5555--|
D--2222-5555--|--22222222--|--7777-5555--|
A--2222-5555--|--22222222--|--5555-3333--|
E--0000-3333--|--00000000--|-------------|


Chorus First part twice

E--33333333--|--33333333--|--5555-0000--|
B--33333333--|--33333333--|--5555-0000--|
G--55555555--|--44444444--|--7777-0000--|
D--55555555--|--55555555--|--7777-2222--|
A--33333333--|--55555555--|--5555-2222--|
E------------|--33333333--|-------0000--|

Last part X1

E--33333333--|--33333333--|--5555-0000--|--33333333--|
B--33333333--|--33333333--|--5555-0000--|--33333333--|
G--55555555--|--44444444--|--7777-0000--|--55555555--|
D--55555555--|--55555555--|--7777-2222--|--55555555--|
A--33333333--|--55555555--|--5555-2222--|--33333333--|
E------------|--33333333--|-------0000--|------------|


Repeat Verse

Repeat Prechorus

Repeat Chorus


Bridge X3

E--66666666--|--11111111--|
B--66666666--|--11111111--|
G--88888888--|--22222222--|
D--88888888--|--33333333--|
A--66666666--|--33333333--|
E------------|--11111111--|


Repeat Chorus


Related for Heres To The Night tab
×
Best way to learn
"Heres To The Night"