Guitaretab - guitar tabs
Song name
# A B C D E F G H I J K L M N O P Q R S T U V W X Y Z

Eve 6 - Girl Eyes tab

GIRL EYES - eve 6
"HORRORSCOPE"
Tuning:Standard (EADGBe)

VERSE
    D  G  A  G
e|--------------|
B|--------------|
G|--7-----------|
D|--7--5--7--5--|
A|--5--5--7--5--|
E|-----3--5--3--|

PRECHORUS:
    A  D  B
e|-----------|
B|-----------|
G|-----7-----|
D|--7--7--9--|
A|--7--5--9--|
E|--5-----7--|
[ Tab from: http://www.guitaretab.com/e/eve-6/28501.html ]
CHORUS:
    A  D  A  B  A  G  D  E (G)
e|-----------------------------|
B|-----------------------------|
G|-----7--------------7--9-----|
D|--7--7--7--9--7--5--7--9-(5)-|
A|--7--5--7--9--7--5--5--7-(5)-|
E|--5-----5--7--5--3-------(3)-|

BRIDGE:
    B  G  D  G  F# G  A  G  F# E
e|--------------------------------|
B|--------------------------------|
G|--------7-----------------------|
D|--9--5--7--5--4--5--7--5--4--2--|
A|--9--5--5--5--4--5--7--5--4--2--|
E|--7--3-----3--2--3--5--3--2--0--|

OUTRO:
    A  E  F# D
e|--------------|
B|--------------|
G|-----------7--|
D|--7--2--4--7--|
A|--7--2--4--5--|
E|--5--0--2-----|
Related for Girl Eyes tab
Advertisement will be closed in 10 seconds