Song name
# A B C D E F G H I J K L M N O P Q R S T U V W X Y Z

Eve 6 - Bang tab

Eve 6 - Bang

Intro:
e------7----------------|
B-------------7-----7---|
G-4---------4-----4-----|
D-----------------------| x2
A-----------------------|
E-----------------------|

Verse:
e------7----------------        e-------------------|
B-------------7-----7---        B---7-----7---------|
G-4---------4-----4-----        G-4----4----4-------|
D----------------------- x2        D----------------| x7
A-----------------------        A-------------------|
E-----------------------        E-------------------|

e----------------|
B---7-----7------|
G-4----4---------|
D-----------4----|
A-----------4----|
E-----------2----|

Pre-chorus:
e----------------------------|
B----------------------------|
G----------------------------|
D-5-5-5-5-5-5-5-7-7--7--7\\\-| x2
A-5-5-5-5-5-5-5-7-7--7--7\\\-|
E-3-3-3-3-3-3-3-5-5--5--5\\\-|
  PM* * * * * *

e-----------------------------------------------------|
B-----------------------------------------------------|
G------------------------------4-4--4--4--4--4--------|
D-5-5-5-5-5-5-5-7--7--7--7--7--4-4--4--4--4--4--------|
A-5-5-5-5-5-5-5-7--7--7--7--7--2-2--2--2--2--2--------|
E-3-3-3-3-3-3-3-5--5--5--5--5-------------------------|

Chorus:
e--------------------------|
B--------------------------|
G-----------2-2--2---2-2-2-|
D-2----2--2-2-2--2---2-2-2-| x3
A-2----2--2-0-0--0---0-0-0-|
E-0----0--0----------------|

e-3----3---------------------------------------------|
B-3----3---------------------------------------------|
G-0----0----4-4--4--4-4---------------2-2--2---2-2-2-|
D-0----0----4-4--4--4-4-2-2-2----2--2-2-2--2---2-2-2-|
A-x----x----2-2--2--2-2-2-2-2----2--2-0-0--0---0-0-0-|
E-3----3--0-------------0-0-0----0--0----------------|

e----------------------------------------------------------------------------|
B----------------------------------------------------------------------------|
G-----------2-2--2---2-2-2-----------2-2--2--2-2-2-2-----------4--4--4-4-4-4-|
D-2----2--2-2-2--2---2-2-2-2----2--2-2-2--2--2-2-2-2-0----0----4--4--4-4-4-4-|
A-2----2--2-0-0--0---0-0-0-2----2--2-0-0--0--0-0-0-0-x----x--2-2--2--2-2-2-2-|
E-0----0--0----------------0----0--0-----------------3----3------------------|


Verse2:
e------7----------------        e-------------------|
B-------------7-----7---        B---7-----7---------|
G-4---------4-----4-----        G-4----4----4-------|
D----------------------- x3        D----------------| x7
A-----------------------        A-------------------|
E-----------------------        E-------------------|

e----------------|
B---7-----7------|
G-4----4---------|
D-----------4----|
A-----------4----|
E-----------2----|

Play Pre-Chorus

Chorus2:
e--------------------------|
B--------------------------|
G-----------2-2--2---2-2-2-|
D-2----2--2-2-2--2---2-2-2-| x3
A-2----2--2-0-0--0---0-0-0-|
E-0----0--0----------------|

e-3----3---------------------------------------------|
B-3----3---------------------------------------------|
G-0----0----4-4--4--4-4---------------2-2--2---2-2-2-|
D-0----0----4-4--4--4-4-2-2-2----2--2-2-2--2---2-2-2-|
A-x----x----2-2--2--2-2-2-2-2----2--2-0-0--0---0-0-0-|
E-3----3--0-------------0-0-0----0--0----------------|

e----------------------------------------------------3------------------------|
B----------------------------------------------------3------------------------|
G-----------2-2--2---2-2-2-----------2-2--2--2-2-2-2-0---------4--4-4--4-4----|
D-2----2--2-2-2--2---2-2-2-2----2--2-2-2--2--2-2-2-2-0----0----4--4-4--4-4----|
A-2----2--2-0-0--0---0-0-0-2----2--2-0-0--0--0-0-0-0-x----x--0-2--2-2--2-2----|
E-0----0--0----------------0----0--0-----------------3----3--0-------------0--|

Bridge: ()=harmonic
e-------------------------------------------|
B-------------------------------------------|
G-----(4)---------4--------(4)---------4----|
D-4-------4----2--4----4-------4----2--4----| x10
A-4-------4----2--2----4-------4----2--2----|
E-2-------2----0-------2-------2----0-------|

Outro:
e-2--2-2--2-2-2--------|
B-2--2-2--2-2-2--------|
G-x--x-x--x-x-x---4----|
D-4--4-4--4-4-4---4----| x3
A---------------2-2----|
E---------------0------|

e-2--2-2--2------------|
B-2--2-2--2------------|
G-x--x-x--x-------4----|
D-4--4-4--4-------4----|
A-------------2---2----|
E-------------0--------|


Enjoy! Comments and ratings appreciated.

Courtesy of PBizzle.
Tap to rate this tab
# A B C D E F G H I J K L M N O P Q R S T U V W X Y Z