Song name
# A B C D E F G H I J K L M N O P Q R S T U V W X Y Z

Eve 6 - How Much Longer tab

HOW MUCH LONGER? - eve 6
"EVE 6"
Tuning:Standard (EADGBe)

INTRO:
    F#
e|-----|
B|-----|
G|-----|
D|--4--|
A|--4--|
E|--2--|

VERSE:
    F#      E  B  F#
e|-------------------|
B|-------------------|
G|-------------4-----|
D|--4-------2--4--4--|
A|--4-------2--2--4--|
E|--2-------0-----2--|

CHORUS:
    C# B  F#
e|------------|
B|------------|
G|--6--4------|
D|--6--4--4---|
A|--4--2--4---|
E|--------2---|
Tap to rate this tab
# A B C D E F G H I J K L M N O P Q R S T U V W X Y Z