Song name
# A B C D E F G H I J K L M N O P Q R S T U V W X Y Z

Eve 6 - On The Roof Again tab

Eve 6 - On The Roof Again

Drop-D tuning: D A D G B E

Intro:
E---------------------------------------------------
B---------------------------------------------------
G------9-9-----------7--------7-7-----------7-------
D------7-7-----------7--------7-7-----------7-------
A------7-7-----------5--------X-X-----------5-------
D-2////7-7-(5)(5)(5)-5---(7)--7-7-(5)(5)(5)-5---(7)-

Verse:
E----------------------------------------------
B----------------------------------------------
G-9-9-----------7--------7-7-----------7-------
D-7-7-----------7--------7-7-----------7------- x3
A-7-7-----------5--------X-X-----------5-------
D-7-7-(5)(5)(5)-5---(7)--7-7-(5)(5)(5)-5---(7)-

E----------------------------------------------
B----------------------------------------------
G-9-9-----------7--------7-7-----------7--7----
D-7-7-----------7--------7-7-----------7--7----
A-7-7-----------5--------X-X-----------5--5----
D-7-7-(5)(5)(5)-5---(7)--7-7-----------5--5----
            
E----------------------------------------------
B----------------------------------------------
G-9-9-----------7--------7-7-----------7-------
D-7-7-----------7--------7-7-----------7------- x3
A-7-7-----------5--------X-X-----------5-------
D-7-7-(5)(5)(5)-5---(7)--7-7-(5)(5)(5)-5---(7)-

E--------------------------------------------------
B--------------------------------------------------
G-9-9-----------7---7------7-------7-------7---5-5-
D-7-7-----------7---7------7-------7-------7---5-5-
A-7-7-----------5---5------5-------5-------5---3-3-
D-7-7-(5)(5)(5)-5---5--0-0---0-0-0---0-0-0---0-----
			PM*   * * *   * * *   *
Chorus: x2
E----------------------------------
B----------------------------------
G-9--9xx-xx4--4xx--6--6xx-xx7--7xx-
D-7--7xx-xx2--2xx--4--4xx-xx7--7xx- x2
A-7--7xx-xx2--2xx--4--4xx-xx5--5xx-
E-7--7xx-xx2--2xx--4--4xx-xx-------

E-------------------------------------
B-------------------------------------
G-9--9xx-xx4--4xx--6--6xx-xx7-7-7-7-9-
D-7--7xx-xx2--2xx--4--4xx-xx7-7-7-7-7-
A-7--7xx-xx2--2xx--4--4xx-xx5-5-5-5-7-
E-7--7xx-xx2--2xx--4--4xx-xx--------7-

E--------------------
B--------------------
G-9----4------2------
D-7----2------0------
A-7----2------0------
E-7----2------0------

Verse 2:
E------------8--8--8--------8--8--8-
B------------8--8--8--------8--8--8-
G------9-9---5--5--5--7-7---5--5--5-
D------7-7------------7-7----------- x2
A------7-7------------5-5-----------
E-2////7-7--------------------------

E----------------------------------------------
B----------------------------------------------
G-9-9-----------7--------7-7-----------7-------
D-7-7-----------7--------7-7-----------7------- x3
A-7-7-----------5--------X-X-----------5-------
D-7-7-(5)(5)(5)-5---(7)--7-7-(5)(5)(5)-5---(7)-

E--------------------------------------------------
B--------------------------------------------------
G-9-9-----------7---7------7-------7-------7---5-5-
D-7-7-----------7---7------7-------7-------7---5-5-
A-7-7-----------5---5------5-------5-------5---3-3-
D-7-7-(5)(5)(5)-5---5--0-0---0-0-0---0-0-0---0-----
			PM*   * * *   * * *   *
Play Chorus

Interlude/Bridge:
E-----------5--5--
B-----------5--5--
G-----------2--2--
D----------------- x9?
A-----------------
E-----------------

E---------------------------------
B---------------------------------
G-7-7-7--7-7-7--7-7-7--7-7-7------
D-7-7-7--7-7-7--7-7-7--7-7-7------
A-5-5-5--5-5-5--5-5-5--5-5-5------
E---------------------------------

Chorus2:
E----------------------------------
B----------------------------------
G-9--9xx-xx4--4xx--6--6xx-xx7--7xx-
D-7--7xx-xx2--2xx--4--4xx-xx7--7xx- x2
A-7--7xx-xx2--2xx--4--4xx-xx5--5xx-
E-7--7xx-xx2--2xx--4--4xx-xx-------

E-------------------------------------
B-------------------------------------
G-9--9xx-xx4--4xx--6--6xx-xx7-7-7-7-9-
D-7--7xx-xx2--2xx--4--4xx-xx7-7-7-7-7-
A-7--7xx-xx2--2xx--4--4xx-xx5-5-5-5-7-
E-7--7xx-xx2--2xx--4--4xx-xx--------7-

E-------------------------------------------------------------
B-------------------------------------------------------------
G-9----9----4----4----6----6----2----2----2----2----4----4----
D-7----7----2----2----4----4----0----0----2----2----2----2----
A-7----7----2----2----4----4----0----0----0----0----2----2----
E-7----7----2----2----4----4----0----0--------------2----2----

E-----------------------------------------------------------
B-----------------------------------------------------------
G-2----2--2----------2----2----4----4----2----2--2----------
D-2----2--2--0-0-0-0-2----2----2----2----2----2--2--0-0-0-0-
A-0----0--0--0-0-0-0-0----0----2----2----0----0--0--0-0-0-0-
E------------0-0-0-0-----------2----2---------------0-0-0-0-

E-----------------------------------------------------------
B-----------------------------------------------------------
G-2----2----4----4----2----2--2----------2-------4--4-4-4-2-
D-2----2----2----2----2----2--2--0-0-0-0-2-------2--2-2-2-0-
A-0----0----2----2----0----0--0--0-0-0-0-0-------2--2-2-2-0-
E-----------2----2---------------0-0-0-0------0--2--2-2-2-0-

E---------------------------------------------
B---------------------------------------------
G-2----------------2----4--------2------------
D-0----------------2----2--------0------------
A-0----------------0----2--------0------------
E-0---------------------2--------0------------


Enjoy! Comments and ratings appreciated.

Courtesy of PBizzle.
Tap to rate this tab
# A B C D E F G H I J K L M N O P Q R S T U V W X Y Z